Log in

One click and you are in

Login with Facebook Login with Google

Why sign up and log in

Guitar Tabs Explorer
The Beatles bass tabs for In spite of all the danger

In Spite Of All The Danger bass tab by The Beatles

The Beatles bass tabs for In spite of all the danger

Bass tabs

Tuning: Standard (E A D G)

85bpm


Intro: (0:03)
G|------------------------|
D|------------------------|
A|------------------------|
E|7-7-7-7-7-7-7-7-7-7-7-7-|
 1 + 2 + 3 + 4 +
Verse 1: (0:07)
G|----------------|
D|----------------|
A|7-------7-------| x3
E|----------------|
 1 + 2 + 3 + 4 +

(0:15)
G|----------------|
D|----------------|
A|7---7---9---7---|
E|----------------|
 1 + 2 + 3 + 4 +

(0:17)
G|----------------|----------------|--------------------|----------------|
D|----------------|----------------|--------6-7---7-6---|----------------|
A|----------------|----------------|7---7-9-----------9-|7-------7-------|
E|5-------5-------|7-------7-------|--------------------|----------------|
 1 + 2 + 3 + 4 + 1 + 2 + 3 + 4 + 1 + 2 + 3 + 4 +  1 + 2 + 3 + 4 +


Verse 2: (0:29)
G|----------------|
D|----------------|
A|7-------7-------| x3
E|----------------|
 1 + 2 + 3 + 4 +

(0:37)
G|----------------|
D|----------------|
A|7---7---9---7---|
E|----------------|
 1 + 2 + 3 + 4 +

(0:40)
G|----------------|----------------|--------------------|----------------|
D|----------------|----------------|--------6-7---7-6---|----------------|
A|----------------|----------------|7---7-9-----------9-|7---7---9---7---|
E|5-------5-------|7-------7-------|--------------------|----------------|
 1 + 2 + 3 + 4 + 1 + 2 + 3 + 4 + 1 + 2 + 3 + 4 +  1 + 2 + 3 + 4 +

Chorus: (0:52)
G|----------------|----------------|----------------|----------------|
D|----------------|----------------|----------------|----------------|
A|----------------|----------------|7-------7-------|7---7---9---7---|
E|5-------5-------|5-------5-------|----------------|----------------|
 1 + 2 + 3 + 4 + 1 + 2 + 3 + 4 + 1 + 2 + 3 + 4 + 1 + 2 + 3 + 4 +

(1:03)
G|----------------|----------------|----------------|
D|----------------|----------------|----------------|
A|----------------|----------------|----------------|
E|5-------5-------|5-------5-------|7-pm------------|
 1 + 2 + 3 + 4 + 1 + 2 + 3 + 4 + 1 + 2 + 3 + 4 +


Verse 3: (1:14)
G|----------------|
D|----------------|
A|7-------7-------| x3
E|----------------|
 1 + 2 + 3 + 4 +

(1:22)
G|----------------|
D|----------------|
A|7---7---9---7---|
E|----------------|
 1 + 2 + 3 + 4 +

(1:24)
G|----------------|----------------|--------------------|----------------|
D|----------------|----------------|--------6-7---7-6---|----------------|
A|----------------|----------------|7---7-9-----------9-|7-------7-------|
E|5-------5-------|7-------7-------|--------------------|----------------|
 1 + 2 + 3 + 4 + 1 + 2 + 3 + 4 + 1 + 2 + 3 + 4 +  1 + 2 + 3 + 4 +

Guitar Solo: (1:36)
G|----------------|
D|----------------|
A|7-------7-------| x3
E|----------------|
 1 + 2 + 3 + 4 +

(1:45)
G|----------------|----------------|----------------|----------------|----------------|
D|----------------|----------------|----------------|----------------|----------------|
A|7---7---7---7---|----------------|----------------|7-------7-------|7-------7-------|
E|----------------|5-------5-------|5-------5-------|----------------|----------------|
 1 + 2 + 3 + 4 + 1 + 2 + 3 + 4 + 1 + 2 + 3 + 4 + 1 + 2 + 3 + 4 + 1 + 2 + 3 + 4 +

(1:59)
G|----------------|----------------|----------------|----------------|---------------|
D|----------------|----------------|----------------|----------------|---------------|
A|----------------|----------------|----------------|7-------7-------|---------------|
E|7-------7-------|7-------7-------|5-------5-------|----------------|7-------7------|
 1 + 2 + 3 + 4 + 1 + 2 + 3 + 4 + 1 + 2 + 3 + 4 + 1 + 2 + 3 + 4 + 1 + 2 + 3 + 4 +


Verse 4: (2:10)
G|----------------|
D|----------------|
A|7-------7-------| x3
E|----------------|
 1 + 2 + 3 + 4 +

(2:18)
G|----------------|
D|----------------|
A|7---7---9---7---|
E|----------------|
 1 + 2 + 3 + 4 +

(2:21)
G|----------------|----------------|--------------------|----------------|
D|----------------|----------------|--------6-7---7-6---|----------------|
A|----------------|----------------|7---7-9-----------9-|7-------7-------|
E|5-------5-------|7-------7-------|--------------------|----------------|
 1 + 2 + 3 + 4 + 1 + 2 + 3 + 4 + 1 + 2 + + 3 + 4 + + 1 + 2 + 3 + 4 +


Outro: (2:32)
G|----------------|----------------|--------------------|-------------------|
D|----------------|----------------|--------6-7---7-6---|-------------------|
A|----------------|----------------|7---7-9-----------9-|7--------7---------|
E|5-------5-------|7-------7-------|--------------------|-----7-------------|
 1 + 2 + 3 + 4 + 1 + 2 + 3 + 4 + 1 + 2 + 3 + 4 +  1 + 2 + + 3 + 4 +

| PM Palm mute

Almost there ...

Sign in to get your own page with links to favourite songs and more. You are just one click away...

Login with Facebook Login with Google