Log in

One click and you are in

Login with Facebook Login with Google

Why sign up and log in

Guitar Tabs Explorer
The Beatles bass tabs for I want you shes so heavy

I Want You She's So Heavy bass tab by The Beatles

The Beatles bass tabs for I want you shes so heavy

Bass tabs

Tuning: Standard


Intro: (3|4)
G|-----------|-----------|-----------|------------|-----------|
D|-----------|-----------|-----------|--5----5/7--|-----------|
A|--5--------|--7--------|--8--------|------------|--7--------|
E|-----------|-----------|-----------|------------|-----------|
  1 + a   1 + a   1 + a   1 +  a   1 + a

G|------------|-----------|------------|-----------|--/14--------|
D|-----10--9--|--8--------|-----10--8--|--7--------|-------------|
A|------------|-----------|------------|-----------|-------------|
E|------------|-----------|------------|-----------|-------------|
  1 +  a   1 + a   1 +  a   1 + a   1  + a


Verse 1: (4|4)
G|--------------------|-------------------|-------------------|-------------------|
D|--------------------|-------------------|-------------------|-------------------|
A|--------------------|-------------------|-------------------|-------------------|
E|--------------------|--5-5-5------------|-------------------|----------5-5-5-5--|
  1 + 2 + 3 + 4 +   1 + 2 + 3 + 4 +   1 + 2 + 3 + 4 +   1 + 2 + 3 + 4 +
   I want you                 so ba- ad   ba- by

G|--------------------|-------------------|--------------------|-------------------|
D|--------------------|-------------------|--------------------|-------------------|
A|--------------------|-------------------|--------------------|--3-------5--------|
E|--------------------|----------5-5-5----|----------5---------|-------------------|
  1 + 2 + 3 + 4 +   1 + 2 + 3 + 4 +   1 + 2 + 3 + 4 +   1 + 2 + 3 + 4 +
   I want you                 so bad

G|-------------------|-------------------|-------------------|----------7-------7--|
D|--3-------5-5-7-7--|----------7-7---7--|-------------------|--------------5h7----|
A|-------------------|--0-0---0----------|--0---0-3---0-3----|--5-5---5------------|
E|-------------------|-------------------|-------------------|---------------------|
  1 + 2 + 3 + 4 +   1 + 2 + 3 + 4 +   1 + 2 + 3 + 4 +   1 + 2 + 3 + 4 e +

G|--------------7----|----------7-------7--|------------5h7-5----|----------7-------7--|
D|------------7---7--|--------------5h7----|------------------7--|--------------5h7----|
A|--5-5-5------------|--5-5---5------------|--5-5-5--------------|--5-5---5------------|
E|-------------------|---------------------|---------------------|---------------------|
  1 + 2 + 3 + 4 +   1 + 2 + 3 + 4 e +   1 + 2 + 3 e + 4 +   1 + 2 + 3 + 4 e +

                                (2|4)
G|----------/7-5-5----|-------------------|-------------------|------------|
D|-----------------7--|-------------------|--5-----5-8-----8--|--10-11-12--|
A|--5-5-5-------------|--5-----5-8-----8--|-------------------|------------|
E|--------------------|-------------------|-------------------|------------|
  1 + 2 + 3 + 4 +   1 + 2 + 3 + 4 +   1 + 2 + 3 + 4 +   1 + 2 +
                                |----3----|

(4|4)
G|-------------------|--------------9-7---|-------------------|--------------9-7---|
D|-------------------|-------------9---9--|-------------------|-------------9---9--|
A|-------------------|----10-9-8-7--------|-------------------|----10-9-8-7--------|
E|--0-----0-0-0---0--|--0-----------------|--0-----0-0-0---0--|--0-----------------|
  1 + 2 + 3 + 4 +   1 + 2 + 3 + 4 +   1 + 2 + 3 + 4 +   1 + 2 + 3 + 4 +

G|-------------------|-/9-----------------|--------------------|
D|-------------------|--------------------|--------------------|
A|-------------------|--------------------|--------------------|
E|--0-----0-0-0---0--|--------------------|--------------------|
  1 + 2 + 3 + 4 +   1 + 2 + 3 + 4 +   1 + 2 + 3 + 4 +
                            I want

Verse 2:
G|---------------------|---------------------|---------------------|---------------------|
D|------------5---6-7--|------------5---6-7--|------------5---6-7--|------------5---6-7--|
A|--0-----0h5----------|--0-----0h5----------|--0-----0h5----------|--0-----0h5----------|
E|---------------------|---------------------|---------------------|---------------------|
  1 + 2 + a 3 + 4 +   1 + 2 + a 3 + 4 +   1 + 2 + a 3 + 4 +   1 + 2 + a 3 + 4 +
  you

G|---------------------|---------------------|-------------------|-------------------|
D|------------5---6-7--|------------5---6-7--|-------------------|-------------------|
A|--0-----0h5----------|--0-----0h5----------|--0-----0-3-----3--|--5-----5-8-----8--|
E|---------------------|---------------------|-------------------|-------------------|
  1 + 2 + a 3 + 4 +   1 + 2 + a 3 + 4 +   1 + 2 + 3 + 4 +   1 + 2 + 3 + 4 +

(2|4)     (4|4)
G|-----------|-------------------|-------------------|
D|-----------|----------7-7---7--|-------------------|
A|--10--12---|--0-0---0----------|--0---0-3---0-3----|
E|-----------|-------------------|-------------------|
  1 + 2 +   1 + 2 + 3 + 4 +   1 + 2 + 3 + 4 +

G|----------7-------7--|--------------5---7--|----------7-------7--|----------------7----|
D|--------------5h7----|----------0h5---7----|--------------5h7----|------------5h7---7--|
A|--5-5---5------------|--5-5-5--------------|--5-5---5------------|--5-5-5--------------|
E|---------------------|---------------------|---------------------|---------------------|
  1 + 2 + 3 + 4 e +   1 + 2 + 3 e + 4 +   1 + 2 + 3 + 4 e +   1 + 2 + 3 + a 4 +

                                          (2|4)
G|----------7-------7--|--------7-5--------|-------------------|-------------------|------------|
D|--------------5h7----|------------7-5----|-------------------|--5-------8--------|--10-11-12--|
A|--5-5---5------------|--5-5-5---------7--|--5-------8--------|-------------------|------------|
E|---------------------|-------------------|-------------------|-------------------|------------|
  1 + 2 + 3 + 4 e +   1 + 2 + 3 + 4 +   1 + 2 + 3 + 4 +   1 + 2 + 3 + 4 +   1 + 2 +
                                           |----3----|

(4|4)
G|-------------------|--------------9-7---|-------------------|--------------9-7---|
D|-------------------|-------------9---9--|-------------------|-------------9---9--|
A|-------------------|----10-9-8-7--------|-------------------|----10-9-8-7--------|
E|--0-----0-0-0---0--|--0-----------------|--0-----0-0-0---0--|--0-----------------|
  1 + 2 + 3 + 4 +   1 + 2 + 3 + 4 +   1 + 2 + 3 + 4 +   1 + 2 + 3 + 4 +

G|-------------------|-/9-----------------|--------------------|
D|-------------------|--------------------|--------------------|
A|-------------------|--------------------|--------------------|
E|--0-----0-0-0---0--|--------------------|--------------------|
  1 + 2 + 3 + 4 +   1 + 2 + 3 + 4 +   1 + 2 + 3 + 4 +

Guitar Solo:
G|---------------------|---------------------|---------------------|---------------------|
D|------------5---6-7--|------------5---6-7--|------------5---6-7--|------------5---6-7--|
A|--0-----0h5----------|--0-----0h5----------|--0-----0h5----------|--0-----0h5----------|
E|---------------------|---------------------|---------------------|---------------------|
  1 + 2 + a 3 + 4 +   1 + 2 + a 3 + 4 +   1 + 2 + a 3 + 4 +   1 + 2 + a 3 + 4 +

G|---------------------|---------------------|-------------------|-------------------|
D|------------5---6-7--|------------5---6-7--|-------------------|-------------------|
A|--0-----0h5----------|--0-----0h5----------|--0-----0-3-----3--|--5-----5-8-----8--|
E|---------------------|---------------------|-------------------|-------------------|
  1 + 2 + a 3 + 4 +   1 + 2 + a 3 + 4 +   1 + 2 + 3 + 4 +   1 + 2 + 3 + 4 +

(2|4)     (4|4)
G|-----------|-------------------|-------------------|
D|-----------|----------7-7---7--|-------------------|
A|--10--12---|--0-0---0----------|--0---0-3---0-3----|
E|-----------|-------------------|-------------------|
  1 + 2 +   1 + 2 + 3 + 4 +   1 + 2 + 3 + 4 +

G|----------7-------7--|----------------5----|------------5---6-7--|------------5h7-5----|
D|--------------5h7----|------------5h7---7--|--------5h7----------|------------------7--|
A|--5-5---5------------|--5-5-5--------------|--5-5----------------|--5-5-5--------------|
E|---------------------|---------------------|---------------------|---------------------|
  1 + 2 + 3 + 4 e +   1 + 2 + 3 + a 4 +   1 + 2 + a 3 + 4 +   1 + 2 + 3 + a 4 +

                                          (2|4)
G|------------5---6-7--|--------5h7-5--------|-------------------|-------------------|------------|
D|--------5h7----------|--------------7-5----|-------------------|--5-------8--------|--10-11-12--|
A|--5-5----------------|--5-5-5-----------7--|--5-------8--------|-------------------|------------|
E|---------------------|---------------------|-------------------|-------------------|------------|
  1 + 2 + a 3 + 4 +   1 + 2 + a 3 + 4 +   1 + 2 + 3 + 4 +   1 + 2 + 3 + 4 +   1 + 2 +
                                           |----3----|

(4|4)
G|-------------------|--------------9-7---|-------------------|--------------9-7---|
D|-------------------|-------------9---9--|-------------------|-------------9---9--|
A|-------------------|----10-9-8-7--------|-------------------|----10-9-8-7--------|
E|--0-----0-0-0---0--|--0-----------------|--0-----0-0-0---0--|--0-----------------|
  1 + 2 + 3 + 4 +   1 + 2 + 3 + 4 +   1 + 2 + 3 + 4 +   1 + 2 + 3 + 4 +

G|-------------------|-/9-------------------|
D|-------------------|----------------------|
A|-------------------|----------------------|
E|--0-----0-0-0---0--|----------------------|
  1 + 2 + 3 + 4 +   1 + 2 + 3 +  4 +
                 she's so

Interlude: (3|4)
G|-----------|-----------|-----------|------------|-----------|
D|-----------|-----------|-----------|--5----5/7--|-----------|
A|--5--------|--7--------|--8--------|------------|--7--------|
E|-----------|-----------|-----------|------------|-----------|
  1 + a   1 + a   1 + a   1 +  a   1 + a

G|-----------|-----------|------------|-----------|--14---------|
D|-/12-10-9--|--8--------|-----10-----|-------14--|-----14------|
A|-----------|-----------|--------13--|-12-15-----|--------15\--|
E|-----------|-----------|------------|-----------|-------------|
  1 + a   1 + a   1 + a   1 + a   1 + a

G|-----------|-----------|-----------|------------|-----------|
D|-----------|-----------|-----------|--5----5/7--|-----------|
A|--5--------|--7--------|--8--------|------------|--7--------|
E|-----------|-----------|-----------|------------|-----------|
  1 + a   1 + a   1 + a   1 +  a   1 + a

G|-----------|-----------|------------|-----------|--14-------|
D|--14\10-9--|--8--------|-----10-----|-------14--|-----------|
A|-----------|-----------|--------13--|-12-15-----|-----------|
E|-----------|-----------|------------|-----------|-----------|
  1 + a   1 + a   1 + a   1 + a   1 + a


Verse 3: (4|4)
G|---------------------|---------------------|---------------------|---------------------|
D|------------5---6-7--|------------5---6-7--|------------5---6-7--|------------5---6-7--|
A|--0-----0h5----------|--0-----0h5----------|--0-----0h5----------|--0-----0h5----------|
E|---------------------|---------------------|---------------------|---------------------|
  1 + 2 + a 3 + 4 +   1 + 2 + a 3 + 4 +   1 + 2 + a 3 + 4 +   1 + 2 + a 3 + 4 +

G|---------------------|---------------------|-------------------|-------------------|
D|------------5---6-7--|------------5---6-7--|-------------------|-------------------|
A|--0-----0h5----------|--0-----0h5----------|--0-----0-3-----3--|--5-----5-8-----8--|
E|---------------------|---------------------|-------------------|-------------------|
  1 + 2 + a 3 + 4 +   1 + 2 + a 3 + 4 +   1 + 2 + 3 + 4 +   1 + 2 + 3 + 4 +
(2|4)     (4|4)
G|-----------|-------------------|-------------------|
D|-----------|----------7-7---7--|-------------------|
A|--10--12---|--0-0---0----------|--0---0-3---0-3----|
E|-----------|-------------------|-------------------|
  1 + 2 +   1 + 2 + 3 + 4 +   1 + 2 + 3 + 4 +

G|----------7-------7--|----------7-5------|------------5---6-7--|------------7-5----|
D|--------------5h7----|--------------7----|--------5h7----------|----------------7--|
A|--5-5---5------------|--5-5-5---------7--|--5-5----------------|--5-5-5------------|
E|---------------------|-------------------|---------------------|-------------------|
  1 + 2 + 3 + 4 e +   1 + 2 + 3 + 4 +   1 + 2 + a 3 + 4 +   1 + 2 + 3 + 4 +

                                          (2|4)
G|------------5---6-7--|------------7-5----|-------------------|-------------------|------------|
D|--------5h7----------|----------------7--|-------------------|--5-------8--------|--10-11-12--|
A|--5-5----------------|--5-5-5------------|--5-------8--------|-------------------|------------|
E|---------------------|-------------------|-------------------|-------------------|------------|
  1 + 2 + a 3 + 4 +   1 + 2 + 3 + 4 +   1 + 2 + 3 + 4 +   1 + 2 + 3 + 4 +   1 + 2 +
                                           |----3----|

(4|4)
G|-------------------|--------------9-7---|-------------------|--------------9-7---|
D|-------------------|-------------9---9--|-------------------|-------------9---9--|
A|-------------------|----10-9-8-7--------|-------------------|----10-9-8-7--------|
E|--0-----0-0-0---0--|--0-----------------|--0-----0-0-0---0--|--0-----------------|
  1 + 2 + 3 + 4 +   1 + 2 + 3 + 4 +   1 + 2 + 3 + 4 +   1 + 2 + 3 + 4 +

G|-------------------|-/9-----------------|
D|-------------------|--------------------|
A|-------------------|--------------------|
E|--0-----0-0-0---0--|--------------------|
  1 + 2 + 3 + 4 +   1 + 2 + 3 +  4 +
                 she's so


Outro: (3|4)
G|-----------|-----------|-----------|------------|-----------|
D|-----------|-----------|-----------|--5----5/7--|-----------|
A|--5--------|--7--------|--8--------|------------|--7--------|
E|-----------|-----------|-----------|------------|-----------|
  1 + a   1 + a   1 + a   1 +  a   1 + a

G|-----------|-----------|------------|-----------|--14---------|
D|-/12-10-9--|--8--------|-----10-----|-------14--|-----14------|
A|-----------|-----------|--------13--|-12-15-----|--------15\--|
E|-----------|-----------|------------|-----------|-------------|
  1 + a   1 + a   1 + a   1 + a   1 + a

G|-----------|-----------|-----------|------------|-----------|
D|-----------|-----------|-----------|--5----5/7--|-----------|
A|--5--------|--7--------|--8--------|------------|--7--------|
E|-----------|-----------|-----------|------------|-----------|
  1 + a   1 + a   1 + a   1 +  a   1 + a

G|-----------|-----------|------------|-----------|--14---------|
D|-/12-10-9--|--8--------|-----10-----|-------14--|-----14------|
A|-----------|-----------|--------13--|-12-15-----|--------15\--|
E|-----------|-----------|------------|-----------|-------------|
  1 + a   1 + a   1 + a   1 + a   1 + a

G|-----------|-----------|-----------|------------|-----------|
D|-----------|-----------|-----------|--5----5/7--|-----------|
A|--5--------|--7--------|--8--------|------------|--7--------|
E|-----------|-----------|-----------|------------|-----------|
  1 + a   1 + a   1 + a   1 +  a   1 + a

G|-----------|-----------|------------|-----------|--14---------|
D|-/12-10-9--|--8--------|-----10-----|-------14--|-----14------|
A|-----------|-----------|--------13--|-12-15-----|--------15\--|
E|-----------|-----------|------------|-----------|-------------|
  1 + a   1 + a   1 + a   1 + a   1 + a

G|-----------|-----------|-----------|------------|-----------|
D|-----------|-----------|-----------|--5----5/7--|-----------|
A|--5--------|--7--------|--8--------|------------|--7--------|
E|-----------|-----------|-----------|------------|-----------|
  1 + a   1 + a   1 + a   1 +  a   1 + a

G|-----------|-----------|------------|-----------|--14-------|
D|-/12-10-9--|--8--------|-----10-----|-------14--|-----------|
A|-----------|-----------|--------13--|-12-15-----|-----------|
E|-----------|-----------|------------|-----------|-----------|
  1 + a   1 + a   1 + a   1 + a   1 + a


☠☠☠☠☠☠☠☠☠☠☠☠☠☠☠☠☠☠☠☠☠☠☠☠☠☠☠☠☠☠☠☠☠☠☠☠

| / Slide up
| \ Slide down
| ~ Vibrato
| h Hammer-on
| |--3--| Triplet

☠☠☠☠☠☠☠☠☠☠☠☠☠☠☠☠☠☠☠☠☠☠☠☠☠☠☠☠☠☠☠☠☠☠☠☠

Almost there ...

Sign in to get your own page with links to favourite songs and more. You are just one click away...

Login with Facebook Login with Google