Log in

One click and you are in

Login with Facebook Login with Google

Why sign up and log in

Guitar Tabs Explorer
The Beatles bass tabs for I me mine

Bass tabs

Tuning: Standard (E A D G)

Key: A

Difficulty: Advanced
Intro:
G|-------------------------|-------------------------|
D|-------------------------|-------------------------|
A|------------3------------|5------------------------|
E|5------------------------|-------------------------|

G|-------------------------|
D|-------------------------|
A|-------------------------|
E|3-----------0------------|


Verse:
G|-------------------------|-------------------------|
D|-------------------------|-------------------------|
A|------------3------------|5------------------------|
E|5------------------------|-------------------------|

G|-------------------------|-------------------------|
D|--------------------6----|7------------------------|
A|------------7------------|----------------7--------|
E|3------------------------|--------------------8----|

G|-------------------------|-------------------------|
D|-------------------------|-------------------------|
A|------------3------------|5------------------------|
E|5------------------------|-------------------------|

G|-------------------------|-------------------------|
D|5------------------------|-------------------------|
A|----------4/7---5--------|-------------------------|
E|--------------------8----|5------------------------|

G|-----------------------/-|7------------------------|
D|-------------------------|-------------------------|
A|5------------------------|-------------------------|
E|-------------------------|-------------------------|

G|-------------------------|9------------------------|
D|-------------------------|----------------6---9----|
A|7h8-7--------------------|------------7------------|
E|-------------------------|-------------------------|

G|-------------------------|-------------------------|
D|7-----------9------------|10----------12-h14--14-/-|
A|-------------------------|-------------------------|
E|-------------------------|-------------------------|

G|-------------------------|-------------------------|
D|15----------\------------|------------15-15-15-15-\|
A|-------------------------|8-------/----------------|
E|-------------------------|-------------------------|

Chorus:
G|---------------------------------|---------------------------------|
D|7-------5-----4---------4-----x--|7-------5-----4------------------|
A|----------------7----------------|----------------7-------4--\-----|
E|---------------------------------|---------------------------------|

G|---------------------------------|---------------------------------|
D|------7-5-----4------------------|------7-5-----4------------------|
A|0---------------7-------4--\-----|0---------------7-------4--------|
E|---------------------------------|---------------------------------|

G|---------------------------------|---------------------------------|
D|---------------------------------|---------------------------------|
A|5---\---3-----2-0-------2--------|5-------3-----2-0----------------|
E|---------------------------------|------------------------2--------|

G|---------------------------------|---------------------------------|
D|7-------5-----4------------------|------7-5-----4------------------|
A|----------------7-------4--\-----|0---------------7-------4--------|
E|---------------------------------|---------------------------------|

G|---------------------------------|---------------------------------|
D|---------------------------------|---------------------------------|
A|7---\---5-----4-2----------------|------7-5-----4-------4----5-/-7-|
E|------------------------5--\-----|0---------------7----------------|


Verse:
G|-------------------------|-------------------------|
D|7------------------------|-------------------------|
A|----------/-7-----\------|5------------------------|
E|-------------------------|-------------------------|

G|-------------------------|-------------------------|
D|-------------------------|7------------------------|
A|------------7------------|------7\3---0---3-/-7----|
E|3------------------------|-------------------------|

G|-------------------------|-------------------------|
D|7------------------------|-------------------------|
A|------------3------------|5------------------------|
E|-------------------------|-------------------------|

G|-------------------------|-------------------------|
D|5------------------------|--------------------7----|
A|------------7---5---3----|0---------------4-/7-----|
E|-------------------------|-------------------------|

G|-------------------------|7------------------------|
D|--------------------7----|-------------------------|
A|5------------------------|-------------------------|
E|-------------------------|-------------------------|

G|-------------------------|9------------------------|
D|-------------------------|----------------6---9----|
A|7h8-7--------------------|------------7------------|
E|-------------------------|-------------------------|

G|-------------------------|-------------------------|
D|7-----------9------------|10----------12-h14--14-/-|
A|-------------------------|-------------------------|
E|-------------------------|-------------------------|

G|-------------------------|--------------------------|
D|15----------\------------|----------15-15-15-15---0-|
A|-------------------------|8-------------------------|
E|-------------------------|--------------------------|


Chorus:
G|---------------------------------|---------------------------------|
D|7-------5-----4---------4-----x--|7-------5-----4------------------|
A|----------------7----------------|----------------7-------4--\-----|
E|---------------------------------|---------------------------------|

G|---------------------------------|---------------------------------|
D|------7-5-----4------------------|------7-5-----4------------------|
A|0---------------7-------4--\-----|0---------------7-------4--------|
E|---------------------------------|---------------------------------|

G|---------------------------------|---------------------------------|
D|---------------------------------|---------------------------------|
A|5---\---3-----2-0-------2--------|5-------3-----2-0----------------|
E|---------------------------------|------------------------2--------|

G|---------------------------------|---------------------------------|
D|7-------5-----4------------------|------7-5-----4------------------|
A|----------------7-------4--\-----|0---------------7-------4--------|
E|---------------------------------|---------------------------------|

G|---------------------------------|---------------------------------|
D|---------------------------------|---------------------------------|
A|7---\---5-----4-2----------------|------7-5-----4-------4----5-/-7-|
E|------------------------5--\-----|0---------------7----------------|


Verse:
G|-------------------------|-------------------------|
D|7------------------------|-------------------------|
A|----------/-7-----\------|5------------------------|
E|-------------------------|-------------------------|

G|-------------------------|-------------------------|
D|-------------------------|7------------------------|
A|------------7------------|------7\3---0---3-/-7----|
E|3------------------------|-------------------------|

G|-------------------------|-------------------------|
D|7------------------------|-------------------------|
A|------------3------------|5------------------------|
E|-------------------------|-------------------------|

G|-------------------------|-------------------------|
D|5------------------------|--------------------7----|
A|------------7---5---3----|0---------------4-/7-----|
E|-------------------------|-------------------------|

G|-------------------------|7------------------------|
D|--------------------7----|-------------------------|
A|5------------------------|-------------------------|
E|-------------------------|-------------------------|

G|-------------------------|9------------------------|
D|-------------------------|----------------6---9----|
A|7h8-7--------------------|------------7------------|
E|-------------------------|-------------------------|

G|-------------------------|-------------------------|
D|7-----------9------------|10----------12-h14--14-/-|
A|-------------------------|-------------------------|
E|-------------------------|-------------------------|

G|-------------------------|--------------------------|
D|15--------------15-\13---|14----\-----10-----\------|
A|-------------------------|--------------------------|
E|-------------------------|--------------------------|


G|-------------------------|-------------------------|
D|3------------------------|-------------------------|
A|-------------------------|-------------------------|
E|-------------------------|-------------------------|


*******************************************************

x = muted
/ = slide up
\ = slide down
h = hammer on

*******************************************************

Almost there ...

Sign in to get your own page with links to favourite songs and more. You are just one click away...

Login with Facebook Login with Google