Search tabs and chords

Search for song, artist or band

Log in

One click and you are in

Login with Facebook Login with Google

Why sign up and log in

Guitar Tabs Explorer
The Beatles bass tabs for I m a looser

Bass tabs

I'm A Looser.btab
Beatles
TablEdited by Jan Bjorklund
Tuning : E A D G 	Time Signature: 4/4

 tempo 180       And I'm |        not what|I      |       |
|--------------------------------|--------------------------------|
|--------------------------------|--------------------------------|
|--------------------------------|--------------------------------|
|--------------------------------|--------------------------------|

 appare to be    |       |        |       Of all the      |
|--------------------------------|0-----------0-----------0-------|
|--------------------0---0-------|----------------0---------------|
|--------------------------------|--------------------------------|
|--------------------------------|--------------------------------|

 love I have     |       |        won or have     |       |
|--------------------------------|--------------------------------|
|0-----------0-----------0-------|3-------3---------------3-------|
|----------------0---------------|----------------3---------------|
|--------------------------------|--------------------------------|

 |       |       |       |        |       |       |       |
|0-------0-----------------------|0-------0---------------0-------|
|----------------0-------4-------|----------------0---------------|
|--------------------------------|--------------------------------|
|--------------------------------|--------------------------------|

 |       |       |       |        |       |       |       |
|------------------------7-------|--------------------------------|
|0---------------7/--9-----------|3-----------3-----------3-------|
|--------------------------------|----------------3---------------|
|--------------------------------|--------------------------------|

 |       |       |       |        |       |       |       |
|0-------------------------------|0-----------------------0-------|
|----------------0-------4-------|----------------0---------------|
|--------------------------------|--------------------------------|
|--------------------------------|--------------------------------|

 |       |       |       |        |       |       |       |
|--------------------------------|--------------------------------|
|0-----------------------0-------|3-----------3-----------3-------|
|----------------0---------------|----------------3---------------|
|--------------------------------|--------------------------------|

 |       |       |       |        |       |       |       |
|0-------------------------------|0-----------------------0-------|
|----------------0-------0-------|----------------0---------------|
|--------------------------------|--------------------------------|
|--------------------------------|--------------------------------|

 |       |       |       |        |       |       |       |
|--------------------------------|--------------------------------|
|0-----------------------0-------|3-----------------------3-------|
|----------------0---------------|----------------3---------------|
|--------------------------------|--------------------------------|

 |       |       I'm a   |        looser....      |       |
|0-----------------------0-------|--------------------------------|
|----------------0---------------|--------------------------------|
|--------------------------------|0-------2-------3-------4-------|
|--------------------------------|--------------------------------|

 |       |       |       |        |       |       |       |
|--------------------------------|--------------------------------|
|0-------------------------------|--------------------------------|
|--------3-------2-------0-------|0-------2-------3-------4-------|
|--------------------------------|--------------------------------|

 |       |       |       |        |       |       |       |
|--------------------------------|0-------------------------------|
|0-------------------------------|--------4-------2-------0-------|
|--------3-------2-------0-------|--------------------------------|
|--------------------------------|--------------------------------|

 |       |       |       |        |       |       |       |
|--------------------------------|--------------------------------|
|2-------0-----------------------|--------------------------------|
|----------------3-------2-------|0-------2-------3-------0-------|
|--------------------------------|--------------------------------|

 |       |       |       |        |       Althoug I       |
|--------------------------------|0-----------------------0-------|
|3-------2-------0-------0-------|----------------0---------------|
|--------------------------------|--------------------------------|
|--------------------------------|--------------------------------|

 laughed and I   |       |        |       |       |       |
|--------------------------------|--------------------------------|
|0-----------0-----------0-------|3-------3---------------3-------|
|----------------0---------------|----------------3---------------|
|--------------------------------|--------------------------------|

 |       |       |       |        |       |       |       |
|0-------------------------------|0-----------------------0-------|
|----------------0-------0-------|----------------0---------------|
|--------------------------------|--------------------------------|
|--------------------------------|--------------------------------|

 |       |       |       |        |       |       |       |
|------------------------7-------|--------------------------------|
|0---------------7/--9-----------|3-----------3-----------3-------|
|--------------------------------|----------------3---------------|
|--------------------------------|--------------------------------|

 |       |       |       |        |       |       |       |
|0-------------------------------|0-----------------------0-------|
|----------------0-------0-------|----------------0---------------|
|--------------------------------|--------------------------------|
|--------------------------------|--------------------------------|

 |       |       |       |        |       |       |       |
|--------------------------------|--------------------------------|
|0-----------0-----------0-------|3-----------3-----------3-------|
|----------------0---------------|----------------3---------------|
|--------------------------------|--------------------------------|

 |       |       |       |        |       |       |       |
|0-------------------------------|0-----------0-----------0-------|
|----------------0-------0-------|----------------0---------------|
|--------------------------------|--------------------------------|
|--------------------------------|--------------------------------|

 |       |       |       |        |       |       |       |
|--------------------------------|--------------------------------|
|0-----------0-----------0-------|3-----------------------3-------|
|----------------0---------------|----------------3---------------|
|--------------------------------|--------------------------------|

 |       |       I'm a   |        looser....      |       |
|0-----------------------0-------|--------------------------------|
|----------------0---------------|--------------------------------|
|--------------------------------|0-------2-------3-------4-------|
|--------------------------------|--------------------------------|

 |       |       |       |        |       |       |       |
|--------------------------------|--------------------------------|
|0-------------------------------|--------------------------------|
|--------3-------2-------0-------|0-------2-------3-------4-------|
|--------------------------------|--------------------------------|

 |       |       |       |        |       |       |       |
|--------------------------------|0-------------------------------|
|0-------------------------------|--------4-------2-------0-------|
|--------3-------2-------0-------|--------------------------------|
|--------------------------------|--------------------------------|

 |       |       |       |        |       |       |       |
|--------------------------------|--------------------------------|
|2-------0-----------------------|--------------------------------|
|----------------3-------2-------|0-------2-------3-------0-------|
|--------------------------------|--------------------------------|

 |       |       |       |        | H a r m o n i c a  s o|l  o
|--------------------------------|0-------0-----------------------|
|3-------2-------0-------0-------|----------------0-------0-------|
|--------------------------------|--------------------------------|
|--------------------------------|--------------------------------|

 |       |       |       |        |       |       |       |
|--------------------------------|--------------------------------|
|0-----------------------0-------|3-------3---------------3-------|
|----------------0---------------|----------------2/--3-----------|
|--------------------------------|--------------------------------|

 |       |       |       |        |       |       |       |
|0-----------------------0-------|0-----------------------0-------|
|----------------0---------------|----------------0---------------|
|--------------------------------|--------------------------------|
|--------------------------------|--------------------------------|

 |       |       |       |        |       |       |       |
|------------------------7-------|--------------------------------|
|0---------------7/--9-----------|3-----------------------3-------|
|--------------------------------|----------------3---------------|
|--------------------------------|--------------------------------|

 |       |       |       |        G u i t a r  s o|l o    |
|0-----------0-------------------|--------------------------------|
|--------4-------0---------------|--------------------------------|
|--------------------------------|0-------2-------3-------4-------|
|--------------------------------|--------------------------------|

 |       |       |       |
|--------------------------------|
|0-------------------------------|
|--------3-------2-------0-------|
|--------------------------------|and so on....

Almost there ...

Sign in to get your own page with links to favourite songs and more. You are just one click away...

Login with Facebook Login with Google