Log in

One click and you are in

Login with Facebook Login with Google

Why sign up and log in

Guitar Tabs Explorer
The Beatles bass tabs for I dont want to spoil the party

I Don't Want To Spoil The Party bass tab by The Beatles

The Beatles bass tabs for I dont want to spoil the party

Bass tabs

  • Tuning: Standard tuning
  • Difficulty: Novice
-------------------------------------------------------------------
           Artist - The Beatles
           **********************
       Song - I Don`t Want To Spoil The Party
       ****************************************
         Album - Beatles For Sale (1964)
        *********************************
           Tabbed By - Ayreon77
           **********************
-------------------------------------------------------------------

Tuning = Standard

00:08

INTRO
******
G|------------|
D|-5-----5----|
A|----5-----5-|
E|------------|


---------------------------
00:10

CHORUS
*******
G|------------|------------|------------|
D|-5-----5----|-5-----5----|-5-----5----|
A|----5-----5-|----5-----5-|----5-----5-|
E|------------|------------|------------|

G|--------------|--------|------|------|--------|
D|--------------|--------|-9----|-7----|----7---|
A|-5-----5----5-|-7----7-|----9-|----7-|-5----5-|
E|----5-----5---|----7---|------|------|--------|

00:25
G|-------|--------|--------------|
D|-5-----|-3----3-|-5-----5----3-|
A|----55-|----3---|----5-----5---|
E|-------|--------|--------------|


---------------------------
00:30

VERSE 1
********
G|------------|--------------|--------------|
D|-5-----5----|-5-----5----3-|-5-----5----5-|
A|----5-----5-|----5-----5---|----5-----5---|
E|------------|--------------|--------------|


G|--------------|--------|------|------|--------|
D|--------------|--------|-9----|-7----|--------|
A|-5-----5----5-|-7----7-|----9-|----7-|-5----5-|
E|----5-----5---|----7---|------|------|----5---|


G|------|--------|--------------|
D|-5----|-3----3-|-5-----5----3-|
A|----5-|----3---|----5-----5---|
E|------|--------|--------------|


---------------------------
00:50

BRIDGE
*******
G|------|--------|--------|--------|-----------|-----|
D|-5----|-5----5-|--------|--------|-----------|---3-|
A|----5-|----5---|-7--7-7-|--------|-3-3-3-3-5-|-5---|
E|------|--------|--------|-5--5-5-|-----------|-----|


G|------|--------|--------|--------|---------|-----|
D|-5----|-5----5-|--------|--------|---------|---4-|
A|----5-|----5---|-7--7-7-|--------|-3--3--5-|-5---|
E|------|--------|--------|-5--5-5-|---------|-----|


---------------------------
01:05

CHORUS
*******
G|------------|--------------|--------------|
D|-5-----5----|-5-----5----3-|-5-----5----5-|
A|----5-----5-|----5-----5---|----5-----5---|
E|------------|--------------|--------------|


G|--------------|--------|------|----------|-------|
D|--------------|--------|-9----|-7--------|-7-----|
A|-5-----5----5-|-7----7-|----9-|----7-6-5-|----5--|
E|----5-----5---|----7---|------|----------|-------|

01:20
G|-------|--------|---------|
D|-5-----|-3----3-|-5-----5-|
A|----55-|----3---|----5----|
E|-------|--------|---------|


---------------------------
01:24

SOLO
*****
G|-------|----------|------------|-------|--------------|
D|-----4-|-5----7-5-|---4-5----5-|-----4-|-5----7-5-4---|
A|-5-7---|----5-----|-5------5---|-5-7---|----5-------7-|
E|-------|----------|------------|-------|--------------|

01:33
G|--------------|--------|--------|--------|---------|
D|--------------|--------|-9----9-|-7----7-|---------|
A|-5-----5----5-|-7----7-|----9---|----7---|-5-3-2---|
E|----5-----5---|----7---|--------|--------|-------5-|


G|------|--------|---------------|
D|-5----|-3----3-|-5-----5-----4-|
A|----5-|----3---|----5----5-7---|
E|------|--------|---------------|


---------------------------
01:46

BRIDGE
*******
G|------|--------|--------|--------|-----------|-----|
D|-5----|-5----5-|--------|--------|-----------|---3-|
A|----5-|----5---|-7--7-7-|--------|-3-3-3-3-5-|-5---|
E|------|--------|--------|-5--5-5-|-----------|-----|


G|------|--------|--------|--------|----------|-----|
D|-5----|-5----5-|--------|--------|----------|---3-|
A|----5-|----5---|-7--7-7-|--------|-3-3-3--5-|-5---|
E|------|--------|--------|-5--5-5-|----------|-----|


---------------------------
02:00

VERSE 2
********
G|------------|---------------|--------------|
D|-5-----5----|-5-----5-----4-|-5-----5----5-|
A|----5-----5-|----5----5-7---|----5-----5---|
E|------------|---------------|--------------|


G|--------------|--------|------|------|--------|
D|--------------|--------|-9----|-7----|--------|
A|-5-----5----5-|-7----7-|----9-|----7-|-5----5-|
E|----5-----5---|----7---|------|------|----5---|


G|------|--------|---------------|
D|-5----|-3----3-|-5-----5-----4-|
A|----5-|----3---|----5----5-7---|
E|------|--------|---------------|


---------------------------
02:21

OUTRO
******
G|--------------|------------|-----------------------|
D|-5-----5----5-|------------|---------------5~~~~~~-|
A|----5-----5---|-5-----5----|-5-----5----5----------|
E|--------------|----5-----5-|----5-----5------------|


ENJOY.............

Almost there ...

Sign in to get your own page with links to favourite songs and more. You are just one click away...

Login with Facebook Login with Google