Search tabs and chords

Search for song, artist or band

Log in

One click and you are in

Login with Facebook Login with Google

Why sign up and log in

Guitar Tabs Explorer
The Beatles bass tabs for I call your name

Bass tabs

beatles_i_call_your_name

TablEdited by Jan Bjorklund
Tuning : E A D G 	Time Signature: 4/4
|--------------|--4-4-4-4-4-4-|------------|4-4-4-4-4-|--------|
|2-4-4-4-4-4-4-|5-------------|1-2-2-2-2-2-|----------|1-2-2-2-|
|--------------|--------------|------------|----------|--------|
|--------------|--------------|------------|----------|--------|

|--------4-|5-6-6-6-4-|6-6-6-6---|----------|--------3-|4-4-4-4-3-|
|2-2-2-2---|----------|--------3-|4-4-4-4-3-|4-4-4-4---|----------|
|----------|----------|----------|----------|----------|----------|
|----------|----------|----------|----------|----------|----------|

|4-4-4-4-4---|--------4-|--------4-|6-6-6-------|------0-1-1-|
|----------1-|2-2-2-2---|2-2-2-2---|------5-6-6-|------1-----|
|------------|----------|----------|------6-----|4-4-4-------|
|------------|----------|----------|------------|------------|

|----------|--2-2-4-|--9-9-9---7-|9-9-9-9-9-7-7-|----5-6-----5-6-|
|4-4-2-4-4-|--------|--------9---|--------------|7-7-----7-7-----|
|----------|--------|7-----------|--------------|----------------|
|----------|5-------|0-----------|--------------|----------------|

|----5-6-----5-6-|6-6---6-6-6---|6-6---6-6-6---|----------|--------|
|7-7-----7-7-----|----6-------6-|----6-------6-|4-4-4-4-2-|4-4-4-4-|
|----------------|--------------|--------------|----------|--------|
|----------------|--------------|--------------|----------|--------|

|5-5-5-5-|4-4-4-1-|----4-4-4-|----4-4---4-|6-6-6---4-|6-6-6-6-|
|--------|--------|2-2-------|2-2-----2---|------6---|--------|
|--------|--------|----------|------------|----------|--------|
|--------|--------|----------|------------|----------|--------|

|----------|2-2-2-2-4-|----4-4-|--4-4-4-4-4-4-4-|9-9-9-9-9-9-9-9-|
|4-4-4-4---|----------|2-2-----|2---------------|----------------|
|--------4-|----------|--------|----------------|----------------|
|----------|----------|--------|----------------|----------------|

|--9---9---9-9-7---|6-6-----|6-4-----|----6-6---|2-2-2-2-2-|
|10--10--10------9-|----6-6-|----6---|4-4-----4-|----------|
|------------------|--------|------7-|----------|----------|
|------------------|--------|--------|----------|----------|

|9-6-----|------------9-9-|----5-6-----5-6-|----5-6-----5-6-|
|----9---|----6-6-9-9-----|7-7-----7-7-----|7-7-----7-7-----|
|------10|7-7-------------|----------------|----------------|
|--------|----------------|----------------|----------------|

|6-6---6-6-6---|6-6---6-6-6---|----------|--------|5-5-5-5-|
|----6-------6-|----6-------6-|4-4-4-4-2-|4-4-4-4-|--------|
|--------------|--------------|----------|--------|--------|
|--------------|--------------|----------|--------|--------|

|4-4-4-1-|----4-4-4-|----4-4---4-|6-6-6---4-|6-6-6-6-|----------|
|--------|2-2-------|2-2-----2---|------6---|--------|4-4-4-4---|
|--------|----------|------------|----------|--------|--------4-|
|--------|----------|------------|----------|--------|----------|

|2-2-2-2-4-|--8-9-9-------|2-2-2-4-|9-9-9-------|2-2-2-2-4-|
|----------|10------7-6-7-|--------|------7-6-7-|----------|
|----------|--------------|--------|------------|----------|
|----------|--------------|--------|------------|----------|

|9-9-9-------|2-2-2-2-4-|9-9-9-------|2-2-2-2-4-|9-9-9-------|
|------7-6-7-|----------|------7-6-7-|----------|------7-6-7-|
|------------|----------|------------|----------|------------|
|------------|----------|------------|----------|------------|

|2-2-2-2-4-|9-9-9-------|2-2-2-2-4-|9-9-9-------|2-2-2-2-4-|
|----------|------7-6-7-|----------|------7-6-7-|----------|
|----------|------------|----------|------------|----------|
|----------|------------|----------|------------|----------|

|9-9-9-------|2-2-2-2-4-|9-9-9-------|2-2-2-2-4-|9-9-9-------|
|------7-6-7-|----------|------7-6-7-|----------|------7-6-7-|
|------------|----------|------------|----------|------------|
|------------|----------|------------|----------|------------|

|2-2-2-2-4-|9-9-9-------|2-2-2-2-4-|9-9-9-------|2-2-2-2-4-|
|----------|------7-6-7-|----------|------7-6-7-|----------|
|----------|------------|----------|------------|----------|
|----------|------------|----------|------------|----------|

Almost there ...

Sign in to get your own page with links to favourite songs and more. You are just one click away...

Login with Facebook Login with Google