Search tabs and chords

Search for song, artist or band

Log in

One click and you are in

Login with Facebook Login with Google

Why sign up and log in

Guitar Tabs Explorer
The Beatles bass tabs for Hey jude

Bass tabs

The Beatles - Hey Jude

Part A

......feel the pain hey jude refrain
G||------------------|----------------------|----------------------|
D||*-------------18x*|----------------------|----------------------|
A||*----------------*|----------------------|----------------------|
E||------------------|--6----6----5----5----|--3----3----1----1----|
---------------------|-------------------------|-------------------------|
---------------------|-------------------------|-------------------------|
------------3----1---|-------------------------|-------------------------|
--0----3-------------|-1--1--1--1--1--1--1--1--|-1--1--1--1--1--1--1--1--|



..fool who plays it cool
----------------------|----------------------|----------------------|
----------------------|----------------------|----------------------|
----------------------|----------------------|------------3---------|
--6-6--6----5----5----|--3----3----1----1----|--0------3-------3----|


--------------------------|--------------------------|--------------------|
--------------------------|--------------------------|--------------------|
--------------------------|--------------------------|--------------------|
--1--1--1--1--1--1--1--1--|--1--1--1--1--8--8--8--8--|--8--8--8--8--7h8---|


Part B

Hey Jude ..
----------------------|----------------------|------------0-----------|
--3----3----3----3----|----------------------|---------2--------0--2--|
----------------------|--3---------3---------|--3------------3--------|
----------------------|---------3-------3----|------------------------|



----------------------|----------------------|----------------------|
--3-------------------|----------------------|----------------------|
---------0--3---------|--1-------------3--1--|---------0--3---------|
-----------------1----|-----------3----------|--1--------------1----|



---------------------|-------------------------|-------------------------|
---------------------|-------------------------|-------------------------|
-3-3-------3---------|-------------------------|----------------------0--|
--------3-------3----|-1--1--1--1--1--1--1--1--|-1--1--1--1--1--1--3-----|



Part C

Hey Jude ....
----------------------|----------------------|------------------------|
----------------------|----------------------|------------------------|
------------0----3----|--3---------3---------|--3------3--3--1--0-----|
--1------1------------|---------3-------3----|---------------------3--|




----------------------|-----------------------|----------------------|
----------------------|-----------------------|----------------------|
---------0--3---------|--1---------1----3--1--|---------0--3---------|
--1--------------1----|---------1-------------|--1--------------1----|



----------------------|--------------------------|----------------------|
----------------------|--------------------------|----------------------|
--3--3------3----3----|--------------------------|----------------------|
---------3------------|--1--1--1--1--1--1--1--1--|--1--1--1--1--1-------|




Part D repeat until end

..Da da da dadadada....
--------------------------|--------------------------|
*-------------------------|--1--1--1--1--1--1--1--1--|
*-------------------------|--------------------------|
--1--1--1--1--1--1--1--1--|--------------------------|


--------------------------|--------------------------||
--------------------------|-------------------------*||
--1--1--1--1--1--1--1--1--|-------------------------*||
--------------------------|--1--1--1--1--1--1--1--1--||


Playorder: A B A C D

Almost there ...

Sign in to get your own page with links to favourite songs and more. You are just one click away...

Login with Facebook Login with Google