Log in

One click and you are in

Login with Facebook Login with Google

Why sign up and log in

Guitar Tabs Explorer
The Beatles guitar tabs for Here comes the sun (Ver. 3)

Guitar tabs

Tabs for: Here Comes The Sun
Written by: George Harrison, John Lennon
Performed by: The Beatles

The Tabs, Enjoy and Good Luck ;)

---2-----0--2-----2--0------------0----------------------0----|
---3--3--------3--------3--0--3--(0)--3--0--2--0--2--3--(2)---|
---2-----------------------0-------------0--------------------|
---0-----------------------0-------------2--------------------|
---------------------------2-------------0--------------------|
---------------------------3----------------------------------|

------2-----0--2-----2--0--------2--0---------|
---3-----3--------3--------3--0--------3---2--|
---2--------------------------0------------0--|
---0--------------------------0------------2--|
------------------------------2------------0--|
------------------------------3---------------|

------2--0--2-----2-----0--2-----2--0--2-------|
---3-----------3-----3--------0-------------3--|
---2--------------------------0-------------1--|
---0--------------------------0-------------0--|
------------------------------2-------------2--|
------------------------------3-------------0--|

------2--0----|
---3-------3--|
---2----------|
---0----------|
--------------|
--------------|

-----------0--------0--------0--------0--------------|
--------3--------3--------3--------3-----3--2--0-----|
--2--4--------2--------0--------2-----------------2--|
-----------------------------------------------------|
-----------------------------------------------------|
-----------------------------------------------------|

---2-----0--2-----2--0------------0----------------------0----|
---3--3--------3--------3--0--3--(0)--3--0--2--0--2--3--(2)---|
---2-----------------------0-------------0--------------------|
---0-----------------------0-------------2--------------------|
---------------------------2-------------0--------------------|
---------------------------3----------------------------------|

------2-----0--2-----2--0--------2--0---------|
---3-----3--------3--------3--0--------3---2--|
---2--------------------------0------------0--|
---0--------------------------0------------2--|
------------------------------2------------0--|
------------------------------3---------------|

------2--0--2-----2-----0--2-----2--0--2-------|
---3-----------3-----3--------0-------------3--|
---2--------------------------0-------------1--|
---0--------------------------0-------------0--|
------------------------------2-------------2--|
------------------------------3-------------0--|

------2--0----|
---3-------3--|
---2----------|
---0----------|
--------------|
--------------|

-----------0--------0--------0--------0--------------|
--------3--------3--------3--------3-----3--2--0-----|
--2--4--------2--------0--------2-----------------2--|
-----------------------------------------------------|
-----------------------------------------------------|
-----------------------------------------------------|

------2-----0--2-------------------0---|
---3-----3---------0--2--0--2--3--(2)--|
---2---------------0-------------------|
---0---------------2-------------------|
-------------------0-------------------|
---------------------------------------|

---2-----0--2-----2--0------------0----------------------0----|
---3--3--------3--------3--0--3--(0)--3--0--2--0--2--3--(2)---|
---2-----------------------0-------------0--------------------|
---0-----------------------0-------------2--------------------|
---------------------------2-------------0--------------------|
---------------------------3----------------------------------|

------2-----0--2-----2--0--------2--0---------|
---3-----3--------3--------3--0--------3---2--|
---2--------------------------0------------0--|
---0--------------------------0------------2--|
------------------------------2------------0--|
------------------------------3---------------|

------2--0--2-----2-----0--2-----2--0--2-------|
---3-----------3-----3--------0-------------3--|
---2--------------------------0-------------1--|
---0--------------------------0-------------0--|
------------------------------2-------------2--|
------------------------------3-------------0--|

------2--0----|
---3-------3--|
---2----------|
---0----------|
--------------|
--------------|

-----------0--------0--------0--------0--------------|
--------3--------3--------3--------3-----3--2--0-----|
--2--4--------2--------0--------2-----------------2--|
-----------------------------------------------------|
-----------------------------------------------------|
-----------------------------------------------------|

------2-----0--2--|
---3-----3--------|
---2--------------|
---0--------------|
------------------|
------------------|

--------------------------------------------2-----|
-----------------1--------------------------3--2--|
--------------2-----------0--------0--------2--0--|
--------2--3-----------2--------0-----------0--2--|
--0--4--------------3--------2-----------2-----0--|
--------------------------------------3-----------|

--------------------------------------------2-----|
-----------------1--------------------------3--2--|
--------------2-----------0--------0--------2--0--|
--------2--3-----------2--------0-----------0--2--|
--0--4--------------3--------2-----------2-----0--|
--------------------------------------3-----------|

--------------------------------------------2-----|
-----------------1--------------------------3--2--|
--------------2-----------0--------0--------2--0--|
--------2--3-----------2--------0-----------0--2--|
--0--4--------------3--------2-----------2-----0--|
--------------------------------------3-----------|

--------------|
--0-----------|
--0--2--0--2--|
--2-----------|
--0-----------|
--------------|

--------------------------------------------2-----|
-----------------1--------------------------3--2--|
--------------2-----------0--------0--------2--0--|
--------2--3-----------2--------0-----------0--2--|
--0--4--------------3--------2-----------2-----0--|
--------------------------------------3-----------|

--------------|
--0--2--0--2--|
--0-----------|
--2-----------|
--0-----------|
--------------|

--------------------------------------------2-----|
-----------------1--------------------------3--2--|
--------------2-----------0--------0--------2--0--|
--------2--3-----------2--------0-----------0--2--|
--0--4--------------3--------2-----------2-----0--|
--------------------------------------3-----------|

--------------|
--0--2--0--2--|
--0-----------|
--2-----------|
--0-----------|
--------------|

--------------------------------------------2-----|
-----------------1--------------------------3--2--|
--------------2-----------0--------0--------2--0--|
--------2--3-----------2--------0-----------0--2--|
--0--4--------------3--------2-----------2-----0--|
--------------------------------------3-----------|

--------------|
--0--2--0--2--|
--0-----------|
--2-----------|
--0-----------|
--------------|

--------------------0-------0---3---5--5--|
-2--0--2--3--2--3--(2)--3--(2)------------|
-0----------------------------------------|
-2----------------------------------------|
-0----------------------------------------|
------------------------------------------|

---2-----0--2-----2--0------------0----------------------0----|
---3--3--------3--------3--0--3--(0)--3--0--2--0--2--3--(2)---|
---2-----------------------0-------------0--------------------|
---0-----------------------0-------------2--------------------|
---------------------------2-------------0--------------------|
---------------------------3----------------------------------|

------2-----0--2-----2--0--------2--0---------|
---3-----3--------3--------3--0--------3---2--|
---2--------------------------0------------0--|
---0--------------------------0------------2--|
------------------------------2------------0--|
------------------------------3---------------|

------2--0--2-----2-----0--2-----2--0--2-------|
---3-----------3-----3--------0-------------3--|
---2--------------------------0-------------1--|
---0--------------------------0-------------0--|
------------------------------2-------------2--|
------------------------------3-------------0--|

------2--0----|
---3-------3--|
---2----------|
---0----------|
--------------|
--------------|

-----------0--------0--------0--------0--------------|
--------3--------3--------3--------3-----3--2--0-----|
--2--4--------2--------0--------2-----------------2--|
-----------------------------------------------------|
-----------------------------------------------------|
-----------------------------------------------------|

------2--0--2-----2-----0--2-----2--0--2-------|
---3-------- --3-----3--------0-------------3--|
---2--------------------------0-------------1--|
---0--------------------------0-------------0--|
------------------------------2-------------2--|
------------------------------3-------------0--|

------2--0----|
---3-------3--|
---2----------|
---0----------|
--------------|
--------------|

-----------0--------0--------0--------0--------------|
--------3--------3--------3--------3-----3--2--0-----|
--2--4--------2--------0--------2-----------------2--|
-----------------------------------------------------|
-----------------------------------------------------|
-----------------------------------------------------|

------2--0----|
---3-------3--|
---2----------|
---0----------|
--------------|
--------------|

-----------0--------0--------0--------0--------------|
--------3--------3--------3--------3-----3--2--0-----|
--2--4--------2--------0--------2-----------------2--|
-----------------------------------------------------|
-----------------------------------------------------|
-----------------------------------------------------|

-------------------------------2--|
------1-------------0----------3--|
----2--------0------0--------0-2--|
--3--------2------0----------0-0--|
---------3------2--------0h2------|

Other versions of Here Comes The Sun

Here comes the sunChords
Here comes the sun (Ver. 2)Chords
Here comes the sun ukuleleChords
Here comes the sunTabs
Here comes the sun (Ver. 2)Tabs
Here comes the sun ukuleleTabs

Almost there ...

Sign in to get your own page with links to favourite songs and more. You are just one click away...

Login with Facebook Login with Google