Search tabs and chords

Search for song, artist or band

Log in

One click and you are in

Login with Facebook Login with Google

Why sign up and log in

Guitar Tabs Explorer
The Beatles guitar tabs for Here comes the sun (Ver. 2)

Guitar tabs

Band: The Beatles
Album: Abby Road

This song is kinda weird on drop D chord diagramDD tuning...so I put the standard chord on the top to
you what it should sound like.

Part 1
   D chord diagramDD                    G chord diagramGG
E|-2-~2---0-2~----2-0-------0------------0-|
B|-3~---3------3~-----3-3-3---3-2~-0-2-3---|
G|-2~-------------------0-------0~---------|
D|-0~-------------------0-------2~---------|
A|----------------------2------------------|
D|----------------------5------------------|

   D chord diagramDD                    G chord diagramGG
E|-2~-2---0-2~----2-0-----2-0---000000--------|
B|-3~---3------3~-----3-3-----3-222222--------|
G|-2~-------------------0-------000000--------|
D|-0~-------------------0-------222222--------|
A|----------------------2---------------------|
D|----------------------5---------------------|
                                vv^^v^
   D chord diagramDD                    G chord diagramGG
E|-2~-2-0-2----2---0-2~---2-0-2--------2-0---|
B|-3~-------3~---3------3-------333333-----3-|
G|-2~-------------------0-------111111-------|
D|-0~-------------------0-------000000-------|
A|----------------------2-------222222-------|
E|----------------------5--------------------|
                                vv^^v^

Part 2                     D chord diagramDD
E|----0---0---0---0------2~-2---0-2----------0-|
B|---3---3---3---3--320—-3~---3-----2~-0-2-3---|
G|-24---2---0---2------2-2~---------0~---------|
D|-----------------------0~---------2~---------|
A|---------------------------------------------|
E|---------------------------------------------|

Repeat part 1
Repeat part 2
Repeat part 1 twice
Repeat part 2

Part 3
               D chord diagramDD
E|--------------------3---2-0-------0-|
B|-----------1-3—-2----2--3-2-0-2-3---|
G|---------2----2—-0----0-2-0---------|
D|-----2-3-------0—-0-------2---------| (6x)
A|-0-4--------------------------------|
D|------------------------------------|

Repeat part 1 and 2 twice
Repeat part 2

End on G chord diagramGG.

Legend:

~ - Let ring
v – down stroke

Other versions of Here Comes The Sun

Here comes the sunChords
Here comes the sun (Ver. 2)Chords
Here comes the sun ukuleleChords
Here comes the sunTabs
Here comes the sun (Ver. 3)Tabs
Here comes the sun ukuleleTabs

Almost there ...

Sign in to get your own page with links to favourite songs and more. You are just one click away...

Login with Facebook Login with Google