Search tabs and chords

Search for song, artist or band

Log in

One click and you are in

Login with Facebook Login with Google

Why sign up and log in

Guitar Tabs Explorer
The Beatles guitar chords for Her majesty ukulele

Guitar chords with lyrics

Tuning: G C E A (G C E A)

Difficulty: Intermediate


Verse: optional
  D *   Dmaj7      D6      D        E7      A        D
  1 + 2 + 3 + 4 +  1 + 2 + 3 + 4 +  1 + 2 + 3 + 4 +  1 + 2 + 3 + 4 +
A|5-------4-------|2-------0-------|2-------0-------|----0---2---4---|
E|2-------2-------|2-------2-------|0-------0-------|----------------|
C|2-------2-------|2-------2-------|2-------1-------|----------------|
g|2-------2-------|2-------2-------|1-------2-------|----------------|

Coda:
If the minor 3rd is to prominently featured for your taste, leave it out:
  Gm6                 G6(no 3rd)
  1 + 2 + 3 + 4 +     1 + 2 + 3 + 4 +
A|----1-----1-1---|  |----5-----5-5---|
E|----0-----0-0---|  |----0-----0-0---|
C/2-----------2---|  /2-----------2---|
g|0-----------0---|  |0-----------0---|

---------------------------------------------------------------------------

Chords:
         g-C-E-A
D *      2-2-2-5 |
Dmaj7    2-2-2-4 | optional (see tab section)
D6       2-2-2-2 |
D        2-2-2-0
E7       1-2-0-2
A        2-1-0-0
Asus4    2-2-0-0

Bm       4-2-2-2
Bmsus2  (4)1-2-2
D7       2-0-2-0
G        0-2-3-2

Gm6      0-2-0-1  or G6(no3rd) 0-2-0-5
D        2-2-2-0
B7       2-3-2-2
Em7      0-2-0-2
A6       2-1-2-0

Intro:
| D |


Verse:
D   Dmaj7       D6          D :
 Her Majesty's a pretty nice girl
        E7             A      D
But she doesn't have a lot to say
D   Dmaj7       D6          D :
 Her Majesty's a pretty nice girl
        E7                 | A    Asus4 A |
But she changes from day to day


Bridge:
Bm                       Bsus2
 I wanna tell her that I love her a lot
      D7                        G
But I gotta get a belly full of wine


Coda:
Gm6              D           B7
 Her Majesty's a pretty nice girl
    Em7           A6       D        B7
Someday I'm gonna make her mine, oh yeah
    Em7           A6       D
Someday I'm gonna make her mine

Almost there ...

Sign in to get your own page with links to favourite songs and more. You are just one click away...

Login with Facebook Login with Google