Log in

One click and you are in

Login with Facebook Login with Google

Why sign up and log in

Guitar Tabs Explorer
The Beatles bass tabs for Getting better

Bass tabs with lyrics

Getting Better – The Beatles
Submitted by; Val Strode
Email; vstrode@Hotmail.com

GETTING BETTER       F | / |
G----------------------------------------------------|-------------12—r—12-----------------------|-/-|-/////
D----------------------------------------------------|--------------------------------------------------|-/-|-/////
A----------------------------------------------------|--------------------------------------------------|-/-|-/////
E--------------------------------------------------3-|-3--r--3--r-------------------------------------|-/-|-/////
C                Dm  C/G              Dm/G
It’s getting better all the time. I used to get mad at my school
                                                 No, I can’t complain
||||||||||||||||||||||||||||||||||||||||||||||||||||||||||||||||||||||||||||||||||||||||||||||||||||||||||||||||||||||||||||||||||||||||||||||||||||||||||||||||||||||||||||||||||||||||||||||||||||||||||||||||||||||||||||||||
   G                                       G
The teachers who taught me weren’t cool.                   You’re holding me down,
                                  No, I can’t complain                     ah
||||||||||||||||||||||||||||||||||||||||||||||||||||||||||||||||||||||||||||||||||||||||||||||||||||||||||||||||||||||||||||||||||||||||||||||||||||||||||||||||||||||||||||||||||||||||||||||||||||||||||||||||||||||||||||||||
   G
Burning me round,   filling me up with the rules.
               Oh….                     foolish rules
||||||||||||||||||||||||||||||||||||||||||||||||||||||||||||||||||||||||||||||||||||||||||||||||||||||||||||||||||||||||||||||||||||||||||||||||||||||||||||||||||||||||||||||||||||||||||||||||||||||||||||||||||||||||||||||||
G—9-12s-|---------5---------5---------------------------------|--2-----5------2-----------|-----------5----------------|-----------------|-----
D-----------|------------------------------2------5---------------|----------------------5-----|--2---3--------------------|-------2---3----|-----
A-----------|------------------------------------------------------|-----------------------------|-------------------3-------|-5-----------2--|---3--
E-3-r-3-r--|-----------------------------------------------------|------------------------------|---------------------------|-----------------|------
       C                   Dm          Em           F
        I’ve got to admit it’s getting better,     a little better all  the time.
                                       Better…                Can’t get no worse.
||||||||||||||||||||||||||||||||||||||||||||||||||||||||||||||||||||||||||||||||||||||||||||||||||||||||||||||||||||||||||||||||||||||||||||||||||||||||||||||||||||||||||||||||||||||||||||||||||||||||||||||||||||||||||||||||
G---------------------------------------------|-2---5----------2-----------|--------------------------------------|------------------------|--------12-12-|-
D-------------------2------------5-----------|------------------------5----|--2------3-------5-------------------|----------2-----3------|-----------------|-
A---3----3-----------------------------------|------------------------------|-----------------------------3--------|--5---------------3---|-----------------|-
E—------------------------------------------|------------------------------|---------------------------------------|-----------------------|--3-------------|-
 C                 Dm             Em       F              G
I have to admit it’s getting better,     it’s getting better, since you’ve been mine..
                              Better…
||||||||||||||||||||||||||||||||||||||||||||||||||||||||||||||||||||||||||||||||||||||||||||||||||||||||||||||||||||||||||||||||||||||||||||||||||||||||||||||||||||||||||||||||||||||||||||||||||||||||||||||||||||||||||||||||
G------------------12-—r—-12------------------|-/--|----------------------9-10-12-12s------------|-/-|-
D----------------------------------------------------|-/--|------------------------------------------------|-/-|-
A----------------------------------------------------|-/--|------------------------------------------------|-/-|-
E--3---r---3---r-----------------------------------|-/---|--3----r-----3---r----------------------------|-/-|-
G
Me used to be angry young man. Me hiding me head in the sand.
||||||||||||||||||||||||||||||||||||||||||||||||||||||||||||||||||||||||||||||||||||||||||||||||||||||||||||||||||||||||||||||||||||||||||||||||||||||||||||||||||||||||||||||||||||||||||||||||||||||||||||||||||||||||||||||||
G--------------------12—r—12--|-//-|----------------------------------------------------------------
D------------------------------------|-//-|----------------------------------------------------------------
A------------------------------------|-//-|----------------------------------------------------------------
E-------3--r--3--r------------------|-//-|----------------------------------------------------------------
   G
You gave me the word, I finally heard, I’m doing the best that I can.





||||||||||||||||||||||||||||||||||||||||||||||||||||||||||||||||||||||||||||||||||||||||||||||||||||||||||||||||||||||||||||||||||||||||||||||||||||||||||||||||||||||||||||||||||||||||||||||||||||||||||||||||||||||||||||||||
G—9-12-9-|--------------------------5------------------------|--5-----------------------|--------------------------|-------------------------|-----
D------------|-------------------5-7-----------------------------|---------------2----------|--5----------------------|-3---r------------------|-----
A------------|--------3--r--3------------------------------------|--------------------------|------------------5------|----------------2--------|-----
E-3-r-3-r--|-----------------------------------------------------|--------------------------|-------------------------|-------------------------|-----
       C                   Dm          Em           F
        I’ve got to admit it’s getting better,     a little better all  the time.
                                       Better…                Can’t get no worse.
||||||||||||||||||||||||||||||||||||||||||||||||||||||||||||||||||||||||||||||||||||||||||||||||||||||||||||||||||||||||||||||||||||||||||||||||||||||||||||||||||||||||||||||||||||||||||||||||||||||||||||||||||||||||||||||||
G------------------2---------------------------|--5----------------------------------|-----------------------------|--------------
D------------2---------------------------------|---------------2---------------------|--5—0---------------------|--3-----------
A--3-------------------------------------------|--------------------------------------|-----------------------------|----------3---
E—--------------------------------------------|--------------------------------------|-----------------------------|--------------
 C                 Dm/C           Em/G    F
I have to admit it’s getting better,     it’s getting better, since you’ve been mine..
                              Better…
||||||||||||||||||||||||||||||||||||||||||||||||||||||||||||||||||||||||||||||||||||||||||||||||||||||||||||||||||||||||||||||||||||||||||||||||||||||||||||||||||||||||||||||||||||||||||||||||||||||||||||||||||||||||||||||||
G------------------------|----------------------------|-----------------------2---5---------2---|--5----------|--------------------|-------------|-
D-3--2------3---2-------|-3---2----3----3-----3--|------------2----2------------------------|----------2--|-5---------------0-|----3-----2-|-
A-------------------------|---------------------------|---3--------------------------------------|-------------|---------------------|-------------|-
E-------------------------|---------------------------|-------------------------------------------|-------------|---------------------|-------------|-
 F                       C                Dm/C Em/G     F
 getting so much better all the time. It’s getting better all the time.  Better, better, better.
||||||||||||||||||||||||||||||||||||||||||||||||||||||||||||||||||||||||||||||||||||||||||||||||||||||||||||||||||||||||||||||||||||||||||||||||||||||||||||||||||||||||||||||||||||||||||||||||||||||||||||||||||||||||||||||||
G------------------2---5---------2---|--5----------|--------------------|-------------|-
D------2----2------------------------|----------2--|-5---------------0-|----3-----2-|-
A----3--------------------------------|-------------|---------------------|-------------|-
E--------------------------------------|-------------|---------------------|-------------|-
C                Dm/C Em/G     F
It’s getting better all the time.  Better, better, better.
||||||||||||||||||||||||||||||||||||||||||||||||||||||||||||||||||||||||||||||||||||||||||||||||||||||||||||||||||||||||||||||||||||||||||||||||||||||||||||||||||||||||||||||||||||||||||||||||||||||||||||||||||||||||||||||||
G----------------------------------------------------------------------------------------------------------------------------------------------------12-
D---------------------------------------------------------------------------------------------------------------------------------------------------------
A---------------------------------------------------------------------------------------------------------------------------------------------------------
E-3------------------------------------------3-------------------------------------------3------------------------------------------3------------3-3---
 G
I used to be cruel to my woman and beat her and kept her apart from the things that she loved.
Man I was mean but I’m changing my scene and I’m doing the best that I can foolish rules

/ - repeat phrase
s- slide
| - measure marker
r – rest
(x) – next note to play on next line

Other versions of Getting Better

Getting better-(Ver. 2)Bass tabs

Almost there ...

Sign in to get your own page with links to favourite songs and more. You are just one click away...

Login with Facebook Login with Google