Log in

One click and you are in

Login with Facebook Login with Google

Why sign up and log in

Guitar Tabs Explorer
The Beatles bass tabs for Getting better (Ver. 2)

Bass tabs

  • Tuning: Standard tuning
  • Difficulty: Novice
-------------------------------------------------------------------
           Artist - Beatles
          ******************
          Song - Getting Better
         ***********************
  Album - Sgt. Pepper`s Lonely Hearts Club Band (1967)
  ******************************************************
          Tabbed By - Ayreon77
         **********************
-------------------------------------------------------------------

Tuning = Standard
00:15

VERSE 1
********     s        s        s         s
G|----------12--12\-|-------12--12\-|---------12--12\-|-------12--12\-|
D|------------------|---------------|-----------------|---------------|
A|------s-----------|----s----------|------s----------|----s----------|
E|-1-3-3\-----------|-3-3\----------|-1-3-3\----------|-3-3\----------|

         s        s        s
G|----------12--12\-|-------12--12\-|---------12--12\-|---------------|
D|------------------|---------------|-----------------|----------7----|
A|------s-----------|----s----------|------s----------|------5-7----7-|
E|-1-3-3\-----------|-3-3\----------|-1-3-3\----------|-3-3-----------|


-------------------------------
00:31

CHORUS
*******
G|---------------5-|-----------|---------|
D|-------s--5--7---|---2-3-5---|---2-3---|
A|-3~~~-5\7--------|-3-------3-|-5-----2-|
E|-----------------|-----------|---------|

G|---------------5---5-|-----------|---------|
D|-------s--5--7---7---|---2-3-5---|---2-3---|
A|-3~~~-5\7------------|-3-------3-|-5-----2-|
E|---------------------|-----------|---------|


-------------------------------
00:46

VERSE 2
********    s
G|-------12--12\-|-------12--12\-|-------12--12\-|-------12--12\-|
D|---------------|---------------|---------------|---------------|
A|----s----------|----s----------|---s-----------|----s----------|
E|-3-3\----------|-3-3\----------|-3-3\----------|-3-3\----------|

         s        s       s          s
G|----------12--12\-|-------12--12\-|-------12--12\-|---------12---12\-|
D|------------------|---------------|---------------|------------------|
A|------s-----------|----s----------|----s----------|------s-----------|
E|-1-3-3\-----------|-3-3\----------|-3-3\----------|-1-3-3\-----------|

        s
G|-------12--12\-|---------------|
D|---------------|----------7----|
A|----s----------|------5-7----7-|
E|-3-3\----------|-3-3-----------|


-------------------------------
01:06

CHORUS
*******
G|---------------5---5-|-----------|---------|
D|-------s--5--7---7---|-2~~-5~~---|-----3~~-|
A|-3~~~-5\7------------|-----------|-5~~-----|
E|---------------------|-----------|---------|


G|-------------------5---5-|-----------|---------|
D|-----------s--5--7---7---|-2~~-5~~---|-----3~~-|
A|-2~~-3~~~-5\7------------|-----------|-5~~-----|
E|-------------------------|-----------|---------|

01:22
G|--------------------|
D|-3-2--3-2--3-2--3---|
A|--------------------|
E|------------------3-|


-------------------------------
01:26

CHORUS
*******
G|---------------5---5-|-----------|---------|
D|-------s--5--7---7---|-2~~-5~~---|-----3~~-|
A|-3~~~-5\7------------|-----------|-5~~-----|
E|---------------------|-----------|---------|


G|-------------------5---5-|-----------|---------|--------|
D|-----------s--5--7---7---|-2~~-5~~---|-----3~~-|--------|
A|-2~~-3~~~-5\7------------|-----------|-5~~-----|--------|
E|-------------------------|-----------|---------|-3~~~~~-|


-------------------------------
01:53

VERSE 3
********    s        s        s        s        s
G|-------12--12\-|-------12--12\-|-------12--12\-|-------12--12\-|-------12--12\-|
D|---------------|---------------|---------------|---------------|---------------|
A|----s----------|----s----------|---s-----------|----s----------|----s----------|
E|-3-3\----------|-3-3\----------|-3-3\----------|-3-3\----------|-3-3\----------|


-------------------------------
02:03

CHORUS
*******
G|---------------5---5-|-----------|---------|
D|-------s--5--7---7---|-2~~-5~~---|-----3~~-|
A|-3~~~-5\7------------|-----------|-5~~-----|
E|---------------------|-----------|---------|


G|-------------------5---5-|-----------|---------|
D|-----------s--5--7---7---|-2~~-5~~---|-----3~~-|
A|-2~~-3~~~-5\7------------|-----------|-5~~-----|
E|-------------------------|-----------|---------|

02:19
G|--------------------|
D|-3-2--3-2--3--------|
A|------------------2-|
E|-------------3--5---|


-------------------------------
02:23

CHORUS
*******
G|---------------5---5-|-----------|---------|
D|-------s--5--7---7---|-2~~-5~~---|-----3~~-|
A|-3~~~-5\7------------|-----------|-5~~-----|
E|---------------------|-----------|---------|


G|-------------------5---5-|-----------|---------|
D|-----------s--5--7---7---|-2~~-5~~---|-----3~~-|
A|-2~~-3~~~-5\7------------|-----------|-5~~-----|
E|-------------------------|-----------|---------|

02:39
G|---------------------------|
D|---3-2--3-2--3-------------|
A|-3------------------2-3~~~-|
E|---------------3--5--------|


ENJOY.............

Other versions of Getting Better

Getting betterBass tabs

Almost there ...

Sign in to get your own page with links to favourite songs and more. You are just one click away...

Login with Facebook Login with Google