Log in

One click and you are in

Login with Facebook Login with Google

Why sign up and log in

Guitar Tabs Explorer
The Beatles bass tabs for From me to you

Bass tabs with lyrics

From Me To You – The Beatles
Submitted by; Val Strode
Email; vstrode@Hotmail.com


FROM ME TO YOU
G--------------------------------------------/--------------
D--------------------------5---------7------/---------------
A---------3------------------------------7--/---------------
E--------------------------------------------/---------------
     C            Am        C            Am
Da da da, da da da, da da.   Da da da, da da da, da da.

G-------------------------------------------------------------------------------------------------------------
D----------------------------------5---------------7---------------------------------------5---------5------
A--------------------3----------------------------------7------------------3-----------------------------5--
E-------------------------------------------------------------------------------------------------------------
          C              Am         C           G7
1. If there’s anything that you want. If there’s anything I can do,
2. I’ve got everything that you want, like a heart that’s oh so true.
3. If there’s anything that you want. If there’s anything I can do,
4. (harmonica)                from me                to you.
5. If there’s anything that you want. If there’s anything I can do,

G----------------------------------------------------------------------------------------------------------------------
D--------------------3-----------------------------7-----------------------------------------------5---------------7--
A-------------------------------3--------------------------------7----------------3---------------------------3-------
E-----------------------------------------------------------------------------------------------------------------------
          F              Am            C       G7   C
1.2.3.4. Just call on me and I’ll send it along, with love from me to you.

(v 2, 4 to bridge, v5 to ENDING)


BRIDGE:
G------------------------------------------------------------------------------------------------
D--5---5-----------------------5----------------5---------3---------------------3-----3-------
A-----------------------5-----------3----------------3----------------------3----------------3-
E-------------------------------------------------------------------------------------------------
    Gm7          C7         F
I got arms that long to hold you, and keep you by my side.

G---------------------------------------------------------------------------------------------------------
D--------------------7--------------------------7-------5-5-5-5—5-5-5-5—5-5-5-5—5-5-5-r-----
A------5---------------------4----5-----------------------------------------------------------------------
E----------------------------------------------------------------------------------------------------------
    D7                      G           Gaug
I got lips that long to kiss you, and keep you satisified. Oohhh
::::::::::::::::::::::::::::::::::::::::::::::::::::::::::::::::::::::::::::::::::::::::::::::::::::::::::::::::::::::::::::::::::::

ENDING:

G-----------------------------------------------------------------------------------------------
D----5------7----------7-----6---------------------6---------5----------------------------7---
A-3-----3---------7----------------7--------------------3----------------------------------0----
E-------------------------------------------------------------------------------------------------
    C Am     Abaug(Eaug)   C        C     Am
    To you,   to you,        to you,     to you

/ - repeat phrase
s- slide
| - measure marker
r – rest
(x) – next note to play on next line

Almost there ...

Sign in to get your own page with links to favourite songs and more. You are just one click away...

Login with Facebook Login with Google