Log in

One click and you are in

Login with Facebook Login with Google

Why sign up and log in

Guitar Tabs Explorer
The Beatles bass tabs for From a window

Bass tabs with lyrics

-----------------------------------------

           THE BEATLES - FROM A WINDOW
             Lennon / McCartney

        -----------------------------------------


  Late yesterday night
  I saw a light
  Shine from a window
  And as I looked again
  Your face came into sight

  I couldn't walk on
  Until you'd gone
  From your window (from your window yeah)
  I had to make you mine
  I knew you were the one

  Oh I would be glad
  Just to have a love like that
  (A love like that)
  Oh I would be true
  And I'd live my life for you

  So meet me tonight
  Just where the light
  Shines from a window (from a window yeah)
  And as I take your hand
  Say that you'll be mine tonight

  (GUITAR SOLO)

  Oh I would be glad
  Just to have a love like that
  (A love like that)
  Oh I would be true
  And I'd live my life for you

  So meet me tonight
  Just where the light
  Shines from a window (from a window yeah)
  And as I take your hand
  Say that you'll be mine tonight

  From a window yeah



   INTRO


 G|---------------------------------|---------------------------------|
 D|---------------------------------|---------------------------------|
 A|---------------------------------|---------2-------3---5-----------|
 E|---------------------------------|-3-----------3-------------------|




 G|---------------------------------|---------------------------------|
 D|---------------------------------|---------------------------------|
 A|---------2-------3---5-----------|---------2-------3---5-----------|
 E|-3-----------3-------------------|-3-----------3-------------------|




   VERSE


 G|---------------------------------|---------------------------------|
 D|---------------------------------|---------------------------------|
 A|-----------------5-------5-------|-----------------5-------5-------|
 E|-3-----------3-------------------|-3-----------3-------------------|




 G|---------------------------------|---------------------------------|
 D|---------------------------------|---------------------------------|
 A|-----------------5-------6-------|-7-----------7-------------------|
 E|-3-----------3-------------------|-----------------7-------6-------|




 G|---------------------------------|---------------------------------|
 D|---------------------------------|---------------------------------|
 A|-----------------7---------------|-5-----------5---0-------5-------|
 E|-5-----------5-----------5-------|---------------------------------|




 G|---------------------------------|---------------------------------|
 D|---------------------------------|---------------------------------|
 A|-----------------3---5-----------|-----------------3---5-----------|
 E|-3-----------3-------------------|-3-----------3-------------------|




   VERSE


 G|---------------------------------|---------------------------------|
 D|---------------------------------|---------------------------------|
 A|-----------------5-------5-------|-----------------5-------5-------|
 E|-3-----------3-------------------|-3-----------3-------------------|




 G|---------------------------------|---------------------------------|
 D|---------------------------------|---------------------------------|
 A|-----------------5-------6-------|-7-----------7-------------------|
 E|-3-----------3-------------------|-----------------7-------6-------|




 G|---------------------------------|---------------------------------|
 D|---------------------------------|---------------------------------|
 A|-----------------7---------------|-5-----------5---0-------5-------|
 E|-5-----------5-----------5-------|---------------------------------|




 G|---------------------------------|---------------------------------|
 D|---------------------------------|---------------------------------|
 A|-----------------3---5-----------|-----------------0-------2-------|
 E|-3-----------3-------------------|-3-----------3-------------------|




   BRIDGE


 G|---------------------------------|---------------------------------|
 D|---------------------------------|---------------------------------|
 A|-3-----------3-----------3-------|-5-----------5---0---0---5-------|
 E|-----------------3---------------|---------------------------------|




 G|---------------------------------|---------------------------------|
 D|---------------------------------|---------------------------------|
 A|-----------------5-------5-------|-7-----------7-------------------|
 E|-3-----------3-------------------|-----------------7-------5-------|




 G|---------------------------------|---------------------------------|
 D|---------------------------------|---------------------------------|
 A|-3-----------3-----------3-------|-2-----------2-----------2-------|
 E|-----------------3---------------|-----------------2---------------|




 G|---------------------------------|---------------------------------|
 D|-2-----------2-----------2-------|---------------------------------|
 A|-----------------2---------------|-0---------------5-------5-------|
 E|---------------------------------|---------------------------------|




   VERSE


 G|---------------------------------|---------------------------------|
 D|---------------------------------|---------------------------------|
 A|-----------------5-------5-------|-----------------5-------5-------|
 E|-3-----------3-------------------|-3-----------3-------------------|




 G|---------------------------------|---------------------------------|
 D|---------------------------------|---------------------------------|
 A|-----------------5-------6-------|-7-----------7-------------------|
 E|-3-----------3-------------------|-----------------7-------6-------|




 G|---------------------------------|---------------------------------|
 D|---------------------------------|---------------------------------|
 A|-----------------7-------7-------|-5-----------5---0-------5-------|
 E|-5-----------5-------------------|---------------------------------|




 G|---------------------------------|---------------------------------|
 D|---------------------------------|---------------------------------|
 A|-----------------3---5-----------|-----------------3---5-----------|
 E|-3-----------3-------------------|-3-----------3-------------------|




   GUITAR SOLO


 G|---------------------------------|---------------------------------|
 D|---------------------------------|---------------------------------|
 A|-----------------5-------5-------|-----------------5-------5-------|
 E|-3-----------3-------------------|-3-----------3-------------------|




 G|---------------------------------|---------------------------------|
 D|---------------------------------|---------------------------------|
 A|-----------------5-------6-------|-7-----------7-------------------|
 E|-3-----------3-------------------|-----------------7-------6-------|




 G|---------------------------------|---------------------------------|
 D|---------------------------------|---------------------------------|
 A|-----------------7-------7-------|-5-----------5---0-------5-------|
 E|-5-----------5-------------------|---------------------------------|




 G|---------------------------------|---------------------------------|
 D|---------------------------------|---------------------------------|
 A|-----------------3---5-----------|-----------------0-------2-------|
 E|-3-----------3-------------------|-3-----------3-------------------|




   BRIDGE


 G|---------------------------------|---------------------------------|
 D|---------------------------------|---------------------------------|
 A|-3-----------3-----------3-------|-5-----------5---0-------5-------|
 E|-----------------3---------------|---------------------------------|




 G|---------------------------------|---------------------------------|
 D|---------------------------------|---------------------------------|
 A|-----------------5-------5-------|-7-----------7-----------7-------|
 E|-3-----------3-------------------|-----------------7---------------|




 G|---------------------------------|---------------------------------|
 D|---------------------------------|---------------------------------|
 A|-3-----------3-----------3-------|-2-----------2-----------2-------|
 E|-----------------3---------------|-----------------2---------------|




 G|---------------------------------|---------------------------------|
 D|-2-----------2-----------2-------|---------------------------------|
 A|-----------------2---------------|-0-----------0---5-------5-------|
 E|---------------------------------|---------------------------------|




   VERSE


 G|---------------------------------|---------------------------------|
 D|---------------------------------|---------------------------------|
 A|-----------------5-------5-------|-----------------5-------5-------|
 E|-3-----------3-------------------|-3-----------3-------------------|




 G|---------------------------------|---------------------------------|
 D|---------------------------------|---------------------------------|
 A|-----------------5-------6-------|-7-----------7-------------------|
 E|-3-----------3-------------------|-----------------7-------6-------|




 G|---------------------------------|---------------------------------|
 D|---------------------------------|---------------------------------|
 A|-----------------7-------6-------|-5-----------5---0-------5-------|
 E|-5-----------5-------------------|---------------------------------|




 G|---------------------------------|---------------------------------|
 D|---------------------------------|---------------------------------|
 A|-6-----------6-------------------|-6-----------6-----------6-------|
 E|-----------------6-------6-------|-----------------6---------------|




 G|---------------------------------|---------------------------------|
 D|---------------------------------|---------------------------------|
 A|-3-----------3-------------------|-3-----------3-----------3-------|
 E|-----------------3-------3-------|-----------------3---------------|




   OUTRO


 G|---------------------------------|---------------------------------|
 D|---------------------------------|---------------------------------|
 A|---------2-------3---5-----------|---------2-------3---5-----------|
 E|-3-----------3-------------------|-3-----------3-------------------|




 G|---------------------------------|---------------------------------|
 D|---------------------------------|---------------------------------|
 A|---------2-------3---5-----------|---------2-------3---5-----------|
 E|-3-----------3-------------------|-3-----------3-------------------|




 G|---------------------------------|---------------------------------|
 D|---------------------------------|---------------------------------|
 A|---------------------------------|---------------------------------|

Almost there ...

Sign in to get your own page with links to favourite songs and more. You are just one click away...

Login with Facebook Login with Google