Log in

One click and you are in

Login with Facebook Login with Google

Why sign up and log in

Guitar Tabs Explorer
The Beatles bass tabs for Eight days a week

Bass tabs

Eight Days a Week
		  The Beatles

		 Standard Tuning

	The Verses	(Walking Bass line)
E |--------------------------------------------------------
A |0-----------------------------------0--------0----------
D |---2--0--------------2-----------2-----2--------2--0----
G |---------2-----0--4-----4-----3-----------------------2-

	(Hold me...)
E |--------------------------------------------------
A |--------------------------------------------------
D |---2-----2--2--2--2--2--2-------------------------
G |---------------------------3-----3--3--3--3--3--3-
	(Hold me...) cont.
E |-----------------------------------------------------
A |-----------------------------------------------------
D |-2-----2--2--2--2--2--2------------------------------
G |------------------------------0-----0--0--0--0--0--0-


	Chorus (8 days a week, I loooooove you)
E |------------------------------------------------
A |------------------------------------------------
D |0--0--0--0--0--0--0--0--2--2--2--2--2--2--2--2--
G |------------------------------------------------


	Chorus cont.
E |------------------------------------------------
A |------------------------------------------------
D |------------------------------------0--0--0--0--
G |0--0--0--0--0--0--0--0--3--3--3--3--------------


Most of the 0's in the verses can be replaced with
5's from the line below, but I find that it's much
easier to play this way. It is a fairly difficult
song, but after a while of practice it will sound
good.

Tabliture by 102571.3071@compuserve.com


	"Have a good time all the time.
	That's my philosophy, Marty."
		-Viv Savage
		Keyboard Player
		Spinal Tap

Almost there ...

Sign in to get your own page with links to favourite songs and more. You are just one click away...

Login with Facebook Login with Google