Log in

One click and you are in

Login with Facebook Login with Google

Why sign up and log in

Guitar Tabs Explorer
The Beatles bass tabs for Dizzy miss lizzy

Bass tabs

  • Tuning: Standard tuning
  • Difficulty: Novice
-------------------------------------------------------------------
           Artist - The Beatles
          **********************
          Song - Dizzy Miss Lizzy
         *************************
           Album - Help (1965)
          *********************
          Tabbed By - Ayreon77
          **********************
-------------------------------------------------------------------

Tuning = Standard


INTRO
******
G|-----------------|-----------------|-----------------|-----------------|
D|-------------4---|-------------4---|-------------4---|-------------4---|
A|-----4---7-----7-|-----4---7-----7-|-----4---7-----7-|-----4---7-----7-|
E|-5-5---5---5-----|-5-5---5---5-----|-5-5---5---5-----|-5-5---5---5-----|


G|-------------4---|-------------4---|-----------------|-----------------|
D|-----4---7-----7-|-----4---7-----7-|-------------4---|-------------4---|
A|-5-5---5---5-----|-5-5---5---5-----|-----4---7-----7-|-----4---7-----7-|
E|-----------------|-----------------|-5-5---5---5-----|-5-5---5---5-----|


G|-------------6---|-------------4---|-----------------|-----------------|
D|-----6---9-----9-|-----4---7-----7-|-------------4---|-----------------|
A|-7-7---7---7-----|-5-5---5---5-----|-----4---7-----7-|---7-7-7-7-7-5-4-|
E|-----------------|-----------------|-5-5---5---5-----|-----------------|

---------------------
00:22

VERSE 1
********
G|-----------------|-----------------|-----------------|-----------------|
D|-------------4---|-------------4---|-------------4---|-------------4---|
A|-----4---7-----7-|-----4---7-----7-|-----4---7-----7-|-----4---7-----7-|
E|-5~~---5---5-----|-5-5---5---5-----|-5-5---5---5-----|-5-5---5---5-----|


G|-------------4---|-------------4---|-----------------|-----------------|
D|-----4---7-----7-|-----4---7-----7-|-------------4---|-------------4---|
A|-5-5---5---5-----|-5-5---5---5-----|-----4---7-----7-|-----4---7-----7-|
E|-----------------|-----------------|-5-5---5---5-----|-5-5---5---5-----|


G|-------------6---|-------------4---|-----------------|-----------------|
D|-----6---9-----9-|-----4---7-----7-|-------------4---|-----------------|
A|-7-7---7---7-----|-5-5---5---5-----|-----4---7-----7-|---7-7-7-7-7-5-4-|
E|-----------------|-----------------|-5-5---5---5-----|-----------------|


---------------------
00:43

VERSE 2
********
G|-----------------|-----------------|-----------------|-----------------|
D|-------------4---|-------------4---|-------------4---|-------------4---|
A|-----4---7-----7-|-----4---7-----7-|-----4---7-----7-|-----4---7-----7-|
E|-5~~---5---5-----|-5-5---5---5-----|-5-5---5---5-----|-5-5---5---5-----|


G|-------------4---|-------------4---|-----------------|-----------------|
D|-----4---7-----7-|-----4---7-----7-|-------------4---|-------------4---|
A|-5-5---5---5-----|-5-5---5---5-----|-----4---7-----7-|-----4---7-----7-|
E|-----------------|-----------------|-5-5---5---5-----|-5-5---5---5-----|


G|-------------6---|-------------4---|-----------------|-----------------|
D|-----6---9-----9-|-----4---7-----7-|-------------4---|-----------------|
A|-7-7---7---7-----|-5-5---5---5-----|-----4---7-----7-|---7-7-7-7-7-5-4-|
E|-----------------|-----------------|-5-5---5---5-----|-----------------|


---------------------
01:04

BREAK
******
G|-----------------|-----------------|-----------------|-----------------|
D|-------------4---|-------------4---|-------------4---|-------------4---|
A|-----4---7-----7-|-----4---7-----7-|-----4---7-----7-|-----4---7-----7-|
E|-5~~---5---5-----|-5-5---5---5-----|-5-5---5---5-----|-5-5---5---5-----|


G|-------------4---|-------------4---|-----------------|-----------------|
D|-----4---7-----7-|-----4---7-----7-|-------------4---|-------------4---|
A|-5-5---5---5-----|-5-5---5---5-----|-----4---7-----7-|-----4---7-----7-|
E|-----------------|-----------------|-5-5---5---5-----|-5-5---5---5-----|


G|-------------6---|-------------4---|-----------------|-----------------|
D|-----6---9-----9-|-----4---7-----7-|-------------4---|-----------------|
A|-7-7---7---7-----|-5-5---5---5-----|-----4---7-----7-|---7-7-7-7-7-5-4-|
E|-----------------|-----------------|-5-5---5---5-----|-----------------|


---------------------
01:25

VERSE 3
********
G|-----------------|-----------------|-----------------|-----------------|
D|-------------4---|-------------4---|-------------4---|-------------4---|
A|-----4---7-----7-|-----4---7-----7-|-----4---7-----7-|-----4---7-----7-|
E|-5~~---5---5-----|-5-5---5---5-----|-5-5---5---5-----|-5-5---5---5-----|


G|-------------4---|-------------4---|-----------------|-----------------|
D|-----4---7-----7-|-----4---7-----7-|-------------4---|-------------4---|
A|-5-5---5---5-----|-5-5---5---5-----|-----4---7-----7-|-----4---7-----7-|
E|-----------------|-----------------|-5-5---5---5-----|-5-5---5---5-----|


G|-------------6---|-------------4---|-----------------|-----------------|
D|-----6---9-----9-|-----4---7-----7-|-------------4---|-----------------|
A|-7-7---7---7-----|-5-5---5---5-----|-----4---7-----7-|---7-7-7-7-7-5-4-|
E|-----------------|-----------------|-5-5---5---5-----|-----------------|


---------------------
01:46

BREAK
******
G|-----------------|-----------------|-----------------|-----------------|
D|-------------4---|-------------4---|-------------4---|-------------4---|
A|-----4---7-----7-|-----4---7-----7-|-----4---7-----7-|-----4---7-----7-|
E|-5~~---5---5-----|-5-5---5---5-----|-5-5---5---5-----|-5-5---5---5-----|


G|-------------4---|-------------4---|-----------------|-----------------|
D|-----4---7-----7-|-----4---7-----7-|-------------4---|-------------4---|
A|-5-5---5---5-----|-5-5---5---5-----|-----4---7-----7-|-----4---7-----7-|
E|-----------------|-----------------|-5-5---5---5-----|-5-5---5---5-----|


G|-------------6---|-------------4---|-----------------|-----------------|
D|-----6---9-----9-|-----4---7-----7-|-------------4---|-----------------|
A|-7-7---7---7-----|-5-5---5---5-----|-----4---7-----7-|---7-7-7-7-7-5-4-|
E|-----------------|-----------------|-5-5---5---5-----|-----------------|


---------------------
02:07

VERSE 4
********
G|-----------------|-----------------|-----------------|-----------------|
D|-------------4---|-------------4---|-------------4---|-------------4---|
A|-----4---7-----7-|-----4---7-----7-|-----4---7-----7-|-----4---7-----7-|
E|-5~~---5---5-----|-5-5---5---5-----|-5-5---5---5-----|-5-5---5---5-----|


G|-------------4---|-------------4---|-----------------|-----------------|
D|-----4---7-----7-|-----4---7-----7-|-------------4---|-------------4---|
A|-5-5---5---5-----|-5-5---5---5-----|-----4---7-----7-|-----4---7-----7-|
E|-----------------|-----------------|-5-5---5---5-----|-5-5---5---5-----|


G|-------------6---|-------------4---|-----------------|-----------------|
D|-----6---9-----9-|-----4---7-----7-|-------------4---|-----------------|
A|-7-7---7---7-----|-5-5---5---5-----|-----4---7-----7-|---7-7-7-7-7-5-4-|
E|-----------------|-----------------|-5-5---5---5-----|-----------------|


---------------------
02:28

VERSE 5
********
G|-----------------|-----------------|-----------------|-----------------|
D|-------------4---|-------------4---|-------------4---|-------------4---|
A|-----4---7-----7-|-----4---7-----7-|-----4---7-----7-|-----4---7-----7-|
E|-5~~---5---5-----|-5-5---5---5-----|-5-5---5---5-----|-5-5---5---5-----|


G|-------------4---|-------------4---|-----------------|-----------------|
D|-----4---7-----7-|-----4---7-----7-|-------------4---|-------------4---|
A|-5-5---5---5-----|-5-5---5---5-----|-----4---7-----7-|-----4---7-----7-|
E|-----------------|-----------------|-5-5---5---5-----|-5-5---5---5-----|


G|-------------6---|-------------4---|-----------------|-----------------|
D|-----6---9-----9-|-----4---7-----7-|-------------4---|-----------------|
A|-7-7---7---7-----|-5-5---5---5-----|-----4---7-----7-|-----------------|
E|-----------------|-----------------|-5-5---5---5-----|-5~~~~~~~~~~~~~~-|


ENJOY.............

Almost there ...

Sign in to get your own page with links to favourite songs and more. You are just one click away...

Login with Facebook Login with Google