Search tabs and chords

Search for song, artist or band

Log in

One click and you are in

Login with Facebook Login with Google

Why sign up and log in

Guitar Tabs Explorer
The Beatles guitar tabs for Dear prudence

Guitar tabs

THE BEATLES
DEAR PRUDCENCE


TABBED BY STEPHEN CONSTANTINE (steveconst@hotmail.com)

NOVEMBER 22, 2002

THIS TAB IS ALL OUR OWN WORK
NOTE:	DROP D chord diagramDD TUNING (TUNE THE LOWER E chord diagramEE STRING DOWN TO A chord diagramAA D chord diagramDD)
	THE TAB REFERS TO THE NOTES TO BE PLAYED, BUT NOT IN
	THE ORDER


PLAY THE NOTES IN THIS ORDER (NOTE: THIS IS JUST AN EXAMPLE!)

E chord diagramEE--2------------
B chord diagramBB----------3----
G chord diagramGG------2--------
D chord diagramDD----0-------0--
A chord diagramAA--0------------
D chord diagramDD--------0------



TAB:

INTRO + FADE OUT

--14-12-10-8--7--5--3--3--
--12-10-10-8--8--7--5--5--
--14-12-11-9--7--7--5--4--
--0--0--0--0--0--0--0--0--
--0--0--0--0--0--0--0--0--
--0--0--0--0--0--0--0--0--

RECURRING MELODY:

--2--2--2--2--2--
--3--3--3--3--3--
--2--2--2--2--2--
--0--0--0--0--0--
--0--3--2--1--0--
--0--0--0--0--0--


'WON'T YOU COME OUT...'

--0--3--2--
--1--0--3--
--0--0--2--
--2--0--0--
--3--2--0--
--0--0--0--


'LOOK AROUND...'

--1--4--3--
--1--4--3--
--2--5--4--
--0--0--0--
--0--0--0--
--0--0--0--



LEAD GUITAR:

------------------------------------------
--7h8-7---7h8-7-7h8-7---7h8-7-7h8-7-------
--------7-------------7-------------7-----
------------------------------------------
------------------------------------------
------------------------------------------


------------------------------------------
---7h8-7---7h8-7---7h8---7h8-7---6-5------
---------7-------7-----7-------7----------
------------------------------------------
------------------------------------------
------------------------------------------


-----------------3-5-5b8-5----------------
---7h8-7---7-5-5-----------7--------------
---------7--------------------------------
------------------------------------------
------------------------------------------
------------------------------------------


------------10-12s10----------------------
--7s8-10-12----------10-------------------
------------------------------------------
------------------------------------------
------------------------------------------
------------------------------------------ x4


---------10---------10-14----10s12-14-17--
--7s8-10----7-10s12-------10--------------
------------------------------------------
------------------------------------------
------------------------------------------
------------------------------------------


--12-13s14-16-22-22-----------------------
------------------------------------------
------------------------------------------
------------------------------------------
------------------------------------------
------------------------------------------

ENJOY!

Other versions of Dear Prudence

Dear prudenceChords
Dear prudence (Ver. 2)Chords

Almost there ...

Sign in to get your own page with links to favourite songs and more. You are just one click away...

Login with Facebook Login with Google