Log in

One click and you are in

Login with Facebook Login with Google

Why sign up and log in

Guitar Tabs Explorer
The Beatles bass tabs for Daytripper

Bass tabs

The Beatles - Daytripper


riff e                      riff a
G-------------------------------
D----------2-0---4----0-2--    G---------2-0---4--0-2
A--------2-----2---2---------    D-------2-----2---2----
E--0-3-4---------------------    A-0-3-4-------------------
riff b

G-----------4-2---6---2---4
D---------4-----4---4--------
A-----5-6---------------------
E---7--------------------------

Song order

Intro
* riff e 2x


Verse
* riff e 4x
* riff a 1x
* riff e 1x


Chorus

D--------2-1-4-
A----1-4------     play this four times
E--2----------
 She was a day tripper one way ticket, yeah, it took me

D---------5-4-7--------4-3-6-----------2h4--
A-----4-7----------3-6---------4-----------2
E---5------------4---------------------
  so      long to find  out and I found out


Verse


Chorus


Bridge: play riff b about 8x


Verse


Chorus


Outro: play riff e repeatedly

Almost there ...

Sign in to get your own page with links to favourite songs and more. You are just one click away...

Login with Facebook Login with Google