Search tabs and chords

Search for song, artist or band

Log in

One click and you are in

Login with Facebook Login with Google

Why sign up and log in

Guitar Tabs Explorer
The Beatles guitar chords for Day tripper ukulele

Guitar chords with lyrics

Tuning: G chord diagramGG C chord diagramCC E chord diagramEE A chord diagramAA (G chord diagramGG C chord diagramCC E chord diagramEE A chord diagramAA)

Key: E chord diagramEE

Key: E chord diagramEE
Intro:
A|----------7-5----9----5-7-|
E|----3-4-7------7----7-----| x5
C| chord diagramC|C|-4------------------------|
G|--------------------------|


Verse 1:
Got a good reason
For taking the
easy way out

A|----------7-5----9----5-7-|
E|----3-4-7------7----7-----|
C| chord diagramC|C|-4------------------------| x2
G|--------------------------|

Got a good reason
A|-----------12-10-----14-----10-12-|
E|----8-9-12--------12-----12-------|
C| chord diagramC|C|-9--------------------------------|
G|----------------------------------|


For taking the
easy way out
A|----------7-5----9----5-7-|
E|----3-4-7------7----7-----|
C| chord diagramC|C|-4------------------------|
G|--------------------------|

Chorus 1:
She was a day tripper
One way ticket yeah

A|-1-1-1-1-1-1-1-1-|
E|-2-2-2-2-2-2-2-2-|
C| chord diagramC|C|-1-1-1-1-1-1-1-1-| x2
G|-3-3-3-3-3-3-3-3-|


It took me so long

A|-0-0-0-0-|-3-3-3-3-|
E|-0-0-0-0-|-4-4-4-4-|
C| chord diagramC|C|-1-1-1-1-|-3-3-3-3-|
G|-2-2-2-2-|-5-5-5-5-|


to find out
And I found out

A|-4-4-4-4-|-2-2-2-2-|
E|-4-4-4-4-|-2-2-2-2-|
C| chord diagramC|C|-5-5-5-5-|-3-3-3-3-|
G|-6-6-6-6-|-4-4-4-4-|


Post Chorus:
A|----------7-5----9----5-7-|
E|----3-4-7------7----7-----|
C| chord diagramC|C|-4------------------------| x2
G|--------------------------|


Verse 2:
She's a big teaser
She took me half
the way there

A|----------7-5----9----5-7-|
E|----3-4-7------7----7-----|
C| chord diagramC|C|-4------------------------| x2
G|--------------------------|

She's a big teaser
She took me half
the way there

A|-----------12-10-----14-----10-12-|
E|----8-9-12--------12-----12-------|
C| chord diagramC|C|-9--------------------------------|
G|----------------------------------|

She took me half
the way there now

A|----------7-5----9----5-7-|
E|----3-4-7------7----7-----|
C| chord diagramC|C|-4------------------------|
G|--------------------------|


(Repeat Chorus 1)


Interlude: George Harrison's Solo
A|----------2-0----4----0-2-|
E|--------2------2----2-----|
C| chord diagramC|C|----2-3-------------------| x3
G|-4------------------------|

A|------------------------|
E|-------------0--1p0-----|
C| chord diagramC|C|-------2---2--------2---|
G|-4--4----4------------4-|

A|-------5---5-7--8p7-5---|
E|-7--7----7------------7-|
C| chord diagramC|C|------------------------|
G|------------------------|

A|-2-2-2-2-2-2-2-2-|
E|-2-2-2-2-2-2-2-2-|
C| chord diagramC|C|-3-3-3-3-3-3-3-3-|
G|-4-4-4-4-4-4-4-4-|


Back to intro riff
A|----------7-5----9----5-7-|
E|----3-4-7------7----7-----|
C| chord diagramC|C|-4------------------------| x2
G|--------------------------|


Verse 3:
Tried to please
her She only played
one night stand

A|----------7-5----9----5-7-|
E|----3-4-7------7----7-----|
C| chord diagramC|C|-4------------------------| x2
G|--------------------------|

She's a big teaser
She took me half
the way there

A|-----------12-10-----14-----10-12-|
E|----8-9-12--------12-----12-------|
C| chord diagramC|C|-9--------------------------------|
G|----------------------------------|

Tried to please
her She only played
one night stand now

A|----------7-5----9----5-7-|
E|----3-4-7------7----7-----|
C| chord diagramC|C|-4------------------------|
G|--------------------------|


Chorus 2:
She was a day tripper
Sunday driver, yeah

A|-1-1-1-1-1-1-1-1-|
E|-2-2-2-2-2-2-2-2-|
C| chord diagramC|C|-1-1-1-1-1-1-1-1-| x2
G|-3-3-3-3-3-3-3-3-|


It took me so long

A|-0-0-0-0-|-3-3-3-3-|
E|-0-0-0-0-|-4-4-4-4-|
C| chord diagramC|C|-1-1-1-1-|-3-3-3-3-|
G|-2-2-2-2-|-5-5-5-5-|


to find out
And I found out

A|-4-4-4-4-|-2-2-2-2-|
E|-4-4-4-4-|-2-2-2-2-|
C| chord diagramC|C|-5-5-5-5-|-3-3-3-3-|
G|-6-6-6-6-|-4-4-4-4-|


Outro: Repeat until fade out

Daytripper
Daytripper yeah

A|----------7-5----9----5-7-|
E|----3-4-7------7----7-----|
C| chord diagramC|C|-4------------------------|
G|--------------------------|

Almost there ...

Sign in to get your own page with links to favourite songs and more. You are just one click away...

Login with Facebook Login with Google