Search tabs and chords

Search for song, artist or band

Log in

One click and you are in

Login with Facebook Login with Google

Why sign up and log in

Guitar Tabs Explorer
The Beatles guitar tabs for Day tripper

Guitar tabs

e----------------------------------------------------------------------
b----------------------------------------------------------------------
g----------------------------------------------------------------------
d-----------2-0---4---0-2----------------------------------------------
a---------2-----2---2----------repeat----------------------------------
e--0-3-4---------------------------------------------------------------

Got a good reason^×

e-4-4-2-0-0-----0-0-0--------------------------------------------------
b---------------1-1-1--------------------------------------------------
g---------------1-1-1--------------------------------------------------
d----------------------------------------------------------------------
a----------------------------------------------------------------------
e----------------------------------------------------------------------

For takin the easy way out---Got a good reason---

e-0-4-4-2-0-----------0-0-0---5-3-2-0-----0-0-0------------------------
b---------------------0-0-0---------------2-2-2------------------------
g-------------1-1-1^×--1-1-1-----------2---0-0-0------------------------
d----------------------------------------------------------------------
a----------------------------------------------------------------------
e----------------------------------------------------------------------

for takin the easy way out-----She was a day tripper--

e-0-4-4-2-0---------0------------------2----0-2-0-2---0-0-0------------
b-------------------0------------0-3-0----------------2-2-2------------
g-----------1-1-1---1---------------------------------3-3-3------------
d----------------------------------------------------------------------
a----------------------------------------------------------------------
e----------------------------------------------------------------------

one way ticket yah---               It took me so long^×    to find out

e-4-2-0-2-----0-0----------------------0---3-2-0-2---0-----------1-----
b---------2---2-2--------------------2---2-------------4-------4-------
d-------------3-3--------------------------------------------1---------
g----------------------------------------------------------------------
a----------------------------------------------------------------------
e----------------------------------------------------------------------


ya that^Òs all for now so cya

Other versions of Day Tripper

Day tripperChords
Day tripper (Ver. 2)Chords
Day tripper ukuleleChords
Day tripper-(Ver. 2)Tabs
data-matched-content-ui-type="image_card_stacked"

Almost there ...

Sign in to get your own page with links to favourite songs and more. You are just one click away...

Login with Facebook Login with Google