Guitar Tabs Explorer
The Beatles guitar tabs for Day tripper (Ver. 2)

Day Tripper tab


5 / 5 [1 vote]


AlanAuthor: Alan

Day Tripper tab by The Beatles (Ver. 2) (Acoustic)

This song is still in a work in progress formation.

Guitar tabs

Print
  • Tuning: Standard tuning
  • Difficulty: Novice
e|-------------------------------------------------------------------------
B|-------------------------------------------------------------------------
G|-------------------------------------------------------------------------
D|-----------2-0-----4-----0-2---------------------------------------------
A|---------2------2-----2--------------------------------------------------
E|--0-3-4------------------------------------------------------------------


e|---------------------------------------------------------------------------
B|---------------------------------------------------------------------------
G|-----------2-0----4----0-2-------------------------------------------------
D|---------2-----2-----2-----------------------------------------------------
A|--0-3-4--------------------------------------------------------------------
E|---------------------------------------------------------------------------


e|---------------------------
B|---------------------------
G|---------------------------  This section do it 4 times.
D|---------------------------
A|--4--4--4--4--4--4--4--4---
E|--2--2--2--2--2--2--2--2---


e|----------------------------
B|----------------------------
G|----------------------------   This section do it 1 time.
D|----------------------------
A|--7--7--7--7--7--7--7--7----
E|--5--5--5--5--5--5--5--5----

The rest of the section you do it 1 time.

e|---------------------------------------------------------------------------|
B|---------------------------------------------------------------------------|
G|---------------------------------------------------------------------------|
D|---------------------------------------------------------------------------|
A|--6--6--6--6--6--6--6--6---------------------------------------------------|
E|--4--4--4--4--4--4--4--4---------------------------------------------------|


e|---------------------------------------------------------------------------|
B|---------------------------------------------------------------------------|
G|---------------------------------------------------------------------------|
D|---------------------------------------------------------------------------|
A|-11--11--11--11--11--11--11--11--------------------------------------------|
E|--9---9---9---9---9---9---9---9--------------------------------------------|


e|---------------------------------------------------------------------------|
B|---------------------------------------------------------------------------|
G|---------------------------------------------------------------------------|
D|---------------------------------------------------------------------------|
A|--9--9--9--9--9--9--9--9---------------------------------------------------|
E|--7--7--7--7--7--7--7--7---------------------------------------------------|

This is still a work in progress song to finish



************************************

| /   slide up
| \   slide down
| h   hammer-on
| p   pull-off
| ~   vibrato
| +   harmonic
| x   Mute note
| b   Bend
| pb  Pre-bend
| br  Bend release
| pbr Pre-bend release
| brb Bend release bend

************************************

Other versions of Day Tripper

- Day tripperChords
- Day tripper (Ver. 2)Chords
- Day tripperTabs

Comment this song and these guitar tabs

Do you have corrections, comments on the guitar tabs, thoughts about the song or a message to the author? Write them below.