Search tabs and chords

Search for song, artist or band

Log in

One click and you are in

Login with Facebook Login with Google

Why sign up and log in

Guitar Tabs Explorer
The Beatles guitar tabs for Cometogether

Guitar tabs

intro:
----------------
----------------
---------------- reapeat 4x
----------------
----------10-7\0
--0-0-5/10------

Chorus:
------------------------------
------------------------------
------------------------------ do this then go back to the intro 4x then this
---9-9-9-9-9-9-7-7-5-5-5-5/7-- again after that move on to....
---9-9-9-9-9-9-7-7-5-5-5-5/7--
---7-7-7-7-7-7-5-5-3-3-3-3/5--

solo:
---------------------------------
---------------------------------
-----10-10-10-10-10-10-10--7-5-7- well eh that really all i know sorry that
-----10-10-10-10-10-10-10--7-5-7- I cannot get the other part of the solo.
---------------------------------
---------------------------------

Almost there ...

Sign in to get your own page with links to favourite songs and more. You are just one click away...

Login with Facebook Login with Google