Search tabs and chords

Search for song, artist or band

Log in

One click and you are in

Login with Facebook Login with Google

Why sign up and log in

Guitar Tabs Explorer
The Beatles bass tabs for Come together

Bass tabs

come together by the beatles, taken from the Album 'Abbey Road' (1969)

INTRO AND VERSE
G |-------------10------
D |----------------12---
A |-------10h12---------
E |-10-10---------------
This is the riff for the intro and through the first part of the verse...

G |-------5-----------5-----------5-----------5----------
D |----------7-----------7-----------7-----------7-------
A |-0--0--------0--0--------0--0--------0--0-------------
E |-------------------------------------------------3----
This part is played when 'he got, hair, down, to his knees'

(VERSE)

CHORUS
G |------------------------------------------
D |------------------------------------------
A |-2--2--2--2--2--2--0--0-------------------
E |-------------------------3--3--3--3--5----

(VERSE)

(CHORUS)

OUTRO
G |---------------------------
D |---------------------------
A |---------------------------
E |-10-10-10-10-10-10-10-10---
repeat this to fade


Any Suggestions or corrections, e-mail

Other versions of Come Together

Come together (Ver. 2)Bass tabs
Come together (Ver. 3)Bass tabs

Almost there ...

Sign in to get your own page with links to favourite songs and more. You are just one click away...

Login with Facebook Login with Google