Search tabs and chords

Search for song, artist or band

Log in

One click and you are in

Login with Facebook Login with Google

Why sign up and log in

Guitar Tabs Explorer
The Beatles bass tabs for Come together (Ver. 3)

Bass tabs

Tuning: Standard

Difficulty: Easy

Come together - Bass tab

 |: 8X           :|: 2X           :|
G|--------10------|----------------|----------------|----------------|
D|------------12\-|--------10------|----------------|----------------|
A|-5-5/12---------|-0-0--------12\-|----------------|----------------|
E|----------------|----------------|3~~~~~~~~~~~~~~~~~~~~~~~~~~~~~~~~|

 |: 8X           :|: 2X           :|
G|--------10------|----------------|----------------|----------------|
D|------------12\-|--------10------|----------------|----------------|
A|-5-5/12---------|-0-0--------12\-|----------------|----------------|
E|----------------|----------------|3~~~~~~~~~~~~~~~~~~~~~~~~~~~~~~~~|

G|----------------|----------------|
D|----------------|----------------|
A|2-2-2-2-2-2-0-0-|--------0-------|
E|----------------|3-3-3-3---------|

 |: 8X           :|: 2X           :|
G|--------10------|----------------|----------------|----------------|
D|------------12\-|--------10------|----------------|----------------|
A|-5-5/12---------|-0-0--------12\-|----------------|----------------|
E|----------------|----------------|3~~~~~~~~~~~~~~~~~~~~~~~~~~~~~~~~|

G|----------------|----------------|--------10------|--------10------|
D|----------------|----------------|------------12\-|------------12\-|
A|2-2-2-2-2-2-0-0-|--------0-------|-5-5/12---------|-5-5/12---------|
E|----------------|3-3-3-3---------|----------------|----------------|

G|----------------|----------------|----------------|----------------|
D|----------------|----------------|----------------|----------------|
A|5-5-5-5-5-5-5-5-|5-5-5-5-5-5-5-5-|5-5-5-5-5-5-5-5-|5-5-5-5-5-5-5-5-|
E|----------------|----------------|----------------|----------------|

G|----------------|----------------|----------------|----------------|
D|----------------|----------------|----------------|----------------|
A|----------------|----------------|----------------|----------------|
E|5-5-5-5-5-5-5-5-|5-5-5-5-5-5-5-5-|5-5-5-5-5-5-5-5-|5-5-5-5-5-5-5-5-|

 |: 6X           :|: 2X           :|
G|--------10------|----------------|----------------|----------------|
D|------------12\-|--------10------|----------------|----------------|
A|-5-5/12---------|-0-0--------12\-|----------------|----------------|
E|----------------|----------------|3~~~~~~~~~~~~~~~~~~~~~~~~~~~~~~~~|

G|----------------|----------------|
D|----------------|----------------|
A|2-2-2-2-2-2-0-0-|--------0-------|
E|----------------|3-3-3-3---------|

 |: 4X           :|:  XXX         :|
G|--------10------|----------------|
D|------------12\-|----------------|
A|-5-5/12---------|5-5-5-5-5-5-5-5-|
E|----------------|----------------|

Other versions of Come Together

Come togetherBass tabs
Come together (Ver. 2)Bass tabs

Almost there ...

Sign in to get your own page with links to favourite songs and more. You are just one click away...

Login with Facebook Login with Google