Search tabs and chords

Search for song, artist or band

Log in

One click and you are in

Login with Facebook Login with Google

Why sign up and log in

Guitar Tabs Explorer
The Beatles guitar tabs for Come together (Ver. 2)

Guitar tabs with lyrics

The timing is written underneath the tabs.
|e = eighth note
|q = quarter note
|h = half note]
Good Luck!

Intro:
e|-----------------|
B|---------6-------|
G|---------5--7----| Play this 4 times
D|-----5H7----7----|
A|-5-5-------------|
E|-----------------|
   e e eHe|h| h

1st Verse:
Part 1
(Here come old flattop/he come, groovin' up slowly/he got, joo-joo eyeball/he one, holy roller/he got...)
e|-------------|
B|-2-2--4-4----|
G|-0-0--0-0----|Play this 8 times
D|-------------|
A|-------------|
E|-------------|
  e e|  e e
Part 2
(...hair, down, to his knees)
e|-------------|
B|-------------|
G|-2-2--4-4----|Play this 4 times
D|-0-0--0-0----|
A|-------------|
E|-------------|
   e e| e e
Part 3
Note: play G chord diagramGG/F chord diagramFF chord only once
 G chord diagramGG/F chord diagramFF (then drum/vocal break until end of pt. 3)
(Got to be a joker he just do what he please)

Bridge:
e|-----------------|
B|---------6-------|
G|---------5--7----| Play this 4 times
D|-----5H7----7----|
A|-5-5-------------|
E|-----------------|
   e e eHe|h| h

2nd Verse:
Play same riff as last verse, just different lyrics:
Part 1:
He wear no shoeshine/he got, toe jam football/he got, monkey finger/he shoot, coca cola/he say...
Part 2:
... I know you, you know me,
Part 3:
One thing I can tell you is you got to be free

Chorus:
Come together!!!!! Right now!!! Over me!
e|------------------------------|
B|------------------------------|
G|------------------------------|
D|-------9-9-9-9-9-9---5-5-5-5--|
A|-------9-9-9-9-9-9---5-5-5-5-7|
E|-------7-7-7-7-7-7---3-3-3-3-5|
         e e|e e|e e|  e e|e e|e
Bridge:
e|-----------------|
B|---------6-------|
G|---------5--7----| Play this 4 times
D|-----5H7----7----|
A|-5-5-------------|
E|-----------------|
   e e eHe|h| h

3rd Verse:
Same riff. New words:
Part 1:
(He bag production/he got, walrus gumboot/he got, Ono sideboard/he one spinal cracker/He got...)
Part 2:
... feet, down, below his knee
Part 3:
Hold you in his armchair you can feel his disease!

Play Chorus:

Play Bridge:

4th Verse:
New lyrics:
Part 1:
He roller-coaster/he got, early warning/he got muddy water/he one mojo filter/he say...
Part 2:
one, and one, and one is three
Part 3:
Got to be good looking cause he so hard to see!
Play chorus:
Outro:
e|-----------------|
B|---------6-------|
G|---------5--7----| Play this 4 times
D|-----5H7----7----|
A|-5-5-------------|
E|-----------------|
   e e eHe|h| h

Thanks for even bothering to look at my tab and farewell!!

Other versions of Come Together

Come togetherChords
Come together (Ver. 2)Chords
Come together ukuleleChords
Come togetherTabs

Almost there ...

Sign in to get your own page with links to favourite songs and more. You are just one click away...

Login with Facebook Login with Google