Search tabs and chords

Search for song, artist or band

Log in

One click and you are in

Login with Facebook Login with Google

Why sign up and log in

Guitar Tabs Explorer
The Beatles bass tabs for Come together (Ver. 2)

Bass tabs

INTRO
x4
G|--------------10~-------|
D|------------------12\5--|
A|--------10h12-----------|
E|--10-10-----------------|
VERSE
x4
G|--------------10~-------|
D|------------------12\5--|
A|--------10h12-----------|
E|--10-10-----------------|

x1
G|-------5--------------5----------|
D|------------7\---------------7\--|
A|---------------------------------|
E|5-5-x----------5-5--x-----------3|


REPEAT INTRO
REPEAT VERSE


CHORUS
G|------------------------|
D|------------------------|
A|2-2-2-2-2-2-------------|
E|-----------5-5-3-3-3-3-5|


INTRO VARIATION
x3
G|--------------10~-------|
D|------------------12\5--|
A|--------10h12-----------|
E|--10-10-----------------|
x1
G|--------------10-10h12-10h12------|
D|------------------------------12--|
A|--------10h12---------------------|
E|--10-10---------------------------|

REPEAT VERSE
REPEAT CHORUS
REPEAT INTRO (EXCEPT PLAY 2x NOT 4x)


SOLO
x8
G|-------|
D|-------|
A|5-5-5-5|
E|-------|
x8
G|-------|
D|-------|
A|-------|
E|5-5-5-5|


POST SOLO
x1
G|--------------10~-------|
D|------------------12\5--|
A|--------10h12-----------|
E|--10-10-----------------|
x1
G|--------------10-10h12-10h12------|
D|------------------------------12--|
A|--------10h12---------------------|
E|--10-10---------------------------|


REPEAT VERSE
REPEAT CHORUS


OUTRO
x3
G|--------------10~-------|
D|------------------12\5--|
A|--------10h12-----------|
E|--10-10-----------------|
x1
G|--------------10-12h10-12h10---|
D|-------------------------------|
A|--------10h12------------------|
E|--10-10------------------------|

REPEAT UNTIL END
G|-------|
D|-------|
A|5-5-5-5|
E|-------|


| /  slide up
| \  slide down
| h  hammer-on
| p  pull-off
| ~  vibrato
| +  harmonic
| x  Mute note
| S  Slap
| P  Pop

Tabbed by: Alex Kehoe
www.alexkehoe.co.uk

Other versions of Come Together

Come togetherBass tabs
Come together (Ver. 3)Bass tabs

Almost there ...

Sign in to get your own page with links to favourite songs and more. You are just one click away...

Login with Facebook Login with Google