Search tabs and chords

Search for song, artist or band

Log in

One click and you are in

Login with Facebook Login with Google

Why sign up and log in

Guitar Tabs Explorer
The Beatles bass tabs for Birthday (Ver. 2)

Bass tabs

This is how I know how to play it. On and in between the guitar parts of the verse there's the bass.


VERSE:

G-------------------------------------------------  x2
D----------------5--4-----------------5--4--------
A----------4--7--------7--------4--7--------7-----
E----5--5-----------------5--5--------------------
G----------------5--4-----------------5--4--------
D----------4--7--------7--------4--7--------7-----
A----5--5-----------------5--5--------------------
E-------------------------------------------------

G-------------------------------------------------
D----------------5--4-----------------5--4--------
A----------4--7--------7--------4--7--------7-----
E----5--5-----------------5--5--------------------

G----------------5--4-----------------5--4--------
D----------4--7--------7--------4--7--------7-----
A----5--5-----------------5--5--------------------
E-------------------------------------------------

After the drum fill, go in with:

G------------------------------------------------------------------------------
D------------------------------------------------------------------------------
A--7--7--7--7--7--7--7--7--7--7--7--7--7--7--7--7--7--7--7--7--7--7--7--7--7--7
E------------------------------------------------------------------------------

G--------------------------
D--------------------------
A--7--7--7--7--7--7--5--5--
E--------------------------

CHORUS:

G--------------------------------------------------   x3
D----------2--2--3--3--4--4--5--5--3--3--2--2------
A----3--3--------------------------------------5--5
E--------------------------------------------------

G-----------------------------------------------------------------------------
D----------2--2--3--3--4--4--5--5--6--6--7--7--8--8--9--9--9--9--9--9--9--9--9
A----3--3---------------------------------------------------------------------
E-----------------------------------------------------------------------------

G-----------------------------------
D--9--9--9--9--9--9--9--------------
A-----------------------7--7--7--7--
E-----------------------------------

RIFF:

G--------------------------------
D--7-----5--7--5-----------------
A-----7-----------7--5-----------
E-----------------------8--5--3--

G--------------5--9--7--5--------
D--------5--7--------------7--5--
A-----7--------------------------
E--5-----------------------------

AND AT THE END DO THIS:

G-----------------------------------------------------------------------------
D----------------5--4-------------------5--4--------------------5--4----------
A----------4--7--------7----------4--7--------7-----------4--7--------7-------
E----5--5-----------------5----5------------------5----5-----------------5----

ORDER:

VERSE x2 as shown
DRUM FILL PART x1 as shown
CHORUS x1 as shown
VERSE x1 as shown
RIFF x1 as shown
CHORUS x1 as shown
VERSE x1 as shown
END x1 as shown

There's nothing wrong with it so don't bother e-mailing me.

Other versions of Birthday

BirthdayBass tabs

Almost there ...

Sign in to get your own page with links to favourite songs and more. You are just one click away...

Login with Facebook Login with Google