Log in

One click and you are in

Login with Facebook Login with Google

Why sign up and log in

Guitar Tabs Explorer
The Beatles bass tabs for Because (Ver. 2)

Bass tabs

Tuning: Standard tuning

-----------------------------------------------------------------------------
                     Artist - Beatles
                     ******************
                      Song - Because
                     ****************
                     Album - Abbey Road
                    ********************
                    Tabbed By - Ayreon77
                    **********************
-----------------------------------------------------------------------------

Tuning = Standard
----------------------
00:24

VERSE 1
********
 Ahhhhhhhh Because the world is round It turns me onnnn  Ahhhh
G|--------7-------|--------------------|------------------|----------|
D|----------------|------------6-------|----------6-------|----------|
A|-5------------4-|---------------7--4-|-------------7--6-|--7--9----|
E|----------------|--------------------|------------------|--------4-|

   Because the world is rouuuuuuuuund
G|---------------------|------------|-----|
D|---------------------|------------|--7--|
A|----------7-----4----|-7----4-----|-----|
E|-4----5--------------|----------5-|-----|


----------------------
00:55

VERSE 2
********
 Ahhhhhhhh Because the wind is high  It blows my mind  Ahhhh
G|--------7-------|--------------------|------------------|----------|
D|----------------|------------6-------|----------6-------|----------|
A|-5------------4-|---------------7--4-|-------------7--6-|--7--9----|
E|----------------|--------------------|------------------|--------4-|

   Because the wind is higggggggggggh
G|---------------------|------------|-----|
D|---------------------|------------|--7--|
A|----------7-----4----|-7----4-----|-----|
E|-4----5--------------|----------5-|-----|

 Ahhhhhhhhhhhhhhhh
G|--------7--------|
D|-----------------|
A|-5---------------|
E|-----------------|


----------------------

CHORUS
*******
Love is all love is new         Love is all love is you
G|--------------------------------------------------------------|
D|------------------4----------------4----------------------6---|
A|--------------------------4-----------------------5-----------|
E|--------------------------------------------------------------|


----------------------
01:42

VERSE 3
********
Because the sky  is blue it makes me cryyyy  Ahhhh
G|---|--------------------|------------------|----------|
D|---|------------6-------|----------6-------|----------|
A|-4-|---------------7--4-|-------------7--6-|--7--9----|
E|---|--------------------|------------------|--------4-|

   Because the sky   is  bluuuuuue
G|---------------------|------------|-----|
D|---------------------|------------|--7--|
A|----------7-----4----|-7----4-----|-----|
E|-4----5--------------|----------5-|-----|


 Ahhhhhhhhhhhhhhhh
G|--------7--------|
D|-----------------|
A|-5---------------|
E|-----------------|


----------------------
02:12

INSTRUMENTAL
*************
                      Ahhhhhhhhhhhhh
G|---|--------------------|------------------|----------|
D|---|------------6-------|----------6-------|----------|
A|-4-|---------------7--4-|-------------7--6-|--7--9----|
E|---|--------------------|------------------|--------4-|

 Ahh Ahhh             Ahhhhhhhhhhhhh
G|---------------------|------------|-----|
D|---------------------|------------|--7--|
A|----------7-----4----|-7----4-----|-----|
E|-4----5--------------|----------5-|-----|


 Ahhhhhhhhhhhhhhhh
G|--------7--------|
D|-----------------|
A|-5---------------|
E|-----------------|


ENJOY...........

Other versions of Because

BecauseBass tabs

Almost there ...

Sign in to get your own page with links to favourite songs and more. You are just one click away...

Login with Facebook Login with Google