Log in

One click and you are in

Login with Facebook Login with Google

Why sign up and log in

Guitar Tabs Explorer
The Beatles bass tabs for Bad to me

Bass tabs

BAD TO ME


INTRO
G|---------------------------------|---------------------------------|
D|---------------------------------|---------------------------------|
A|-6-------------------------------|---------------------------------|
E|---------------------------------|-8-------------------------------|
      If you ever leave me      I'll be sad and blue

G|---------------------------------|---------------------------------|
D|-5-------------------------------|---------------------------------|
A|---------------------------------|-8-------------------------------|
E|---------------------------------|---------------------------------|
     don't you ever leave me       I'm   so in love with

G|---------------------------------|
D|---------------------------------|
A|---------------------------------|
E|-6-------------------------------|
  you             The


VERSE

G|---------------------------------|---------------------------------|
D|---------------------------------|---------------------------------|
A|-6-----------6---5-----------5---|-3-----------1---3-------1-------|
E|---------------------------------|---------------------------------|
  birds  in the sky  would be      sad and lonely if they

G|---------------------------------|---------------------------------|
D|---------------------------------|---------------------------------|
A|-6-----------6---5-----------5---|-3-----------1---3-------1-------|
E|---------------------------------|---------------------------------|
  knew  that  I've  lost my      one and only they'd be

G|---------------------------------|---------------------------------|
D|---------------------------------|---------------------------------|
A|---------------------------------|---------------------------------|
E|-4-----------4---4---------------|-6-----------6---6---------------|
  sad           if you're bad           to

G|---------------------------------|---------------------------------|
D|-----------------8---------------|-5---5---5-------8---8---8-------|
A|-6-----------6-----------6-------|---------------------------------|
E|---------------------------------|---------------------------------|
  me                              The

VERSE


G|---------------------------------|---------------------------------|
D|---------------------------------|---------------------------------|
A|-6-----------6---5-----------5---|-3-----------1---3-------1-------|
E|---------------------------------|---------------------------------|
  leaves in the trees would be      softly sighin' if they

G|---------------------------------|---------------------------------|
D|---------------------------------|---------------------------------|
A|-6-----------6---5-----------5---|-3-----------1---3-------1-------|
E|---------------------------------|---------------------------------|
  heard from the breeze that you     left me crying they'd be

G|---------------------------------|---------------------------------|
D|---------------------------------|---------------------------------|
A|---------------------------------|---------------------------------|
E|-4-----------4---4---------------|-6-----------6---6---------------|
  sad          don't be  bad           to

G|---------------------------------|---------------------------------|
D|---------------------------------|---------------------------------|
A|-6-----------6---6---------------|-6-------------------------------|
E|---------------------------------|---------------------------------|
  me                        But I know you


BRIDGE


G|---------------------------------|---------------------------------|
D|---------------------------------|---------------------------------|
A|---------------------------------|---------------------------------|
E|-4-----------4---4---------------|-6-----------6---6---------------|
  won't leave me     cos you  told  me so       and

G|---------------------------------|---------------------------------|
D|---------------------------------|---------------------------------|
A|---------------------------------|-3-----------3---3---------------|
E|-3-----------3---3---------------|---------------------------------|
  I've no intentions     of  lettin' you go

G|---------------------------------|---------------------------------|
D|-3-----------3---3---------------|---------------------------------|
A|---------------------------------|-1-----------1---1---------------|
E|---------------------------------|---------------------------------|
  just  as   long  as you  let me   know      you

G|---------------------------------|---------------------------------|
D|-3-----------3---3---------------|---------------------------------|
A|---------------------------------|-1-----------1---1---------------|
E|---------------------------------|---------------------------------|
  won't  be   bad   to    me           So the


VERSE


G|---------------------------------|---------------------------------|
D|---------------------------------|---------------------------------|
A|-6-----------6---5-----------5---|-3-----------1---3---1---3---1---|
E|---------------------------------|---------------------------------|
  birds  in the sky  won't be      sad and lonely cos they

G|---------------------------------|---------------------------------|
D|---------------------------------|---------------------------------|
A|-6-----------6---5-----------5---|-3-----------1---3-------1-------|
E|---------------------------------|---------------------------------|
  know  that  I    got my      one and only they'll be

G|---------------------------------|---------------------------------|
D|---------------------------------|---------------------------------|
A|---------------------------------|---------------------------------|
E|-4-----------4---4-----------4---|-6-----------6---6-------6-------|
  glad         you're not bad           to

G|---------------------------------|---------------------------------|
D|---------------------------------|---------------------------------|
A|-6-----------6---6-----------6---|-6-------------------------------|
E|---------------------------------|---------------------------------|
  me                        But I know you


BRIDGE


G|---------------------------------|---------------------------------|
D|---------------------------------|---------------------------------|
A|---------------------------------|---------------------------------|
E|-4-----------4---4-------4-------|-6-----------6---6-------6-------|
  won't leave me     cos you  told  me so       and

G|---------------------------------|---------------------------------|
D|---------------------------------|---------------------------------|
A|---------------------------------|-3-----------3---3---------------|
E|-3-----------3---3---------------|---------------------------------|
  I've no intentions     of  lettin' you go

G|---------------------------------|-3-----------3---3---------------|
D|-3-----------3---3---------------|---------------------------------|
A|---------------------------------|---------------------------------|
E|---------------------------------|---------------------------------|
  just  as   long  as you  let me   know      you

G|---------------------------------|-3-----------3---3---------------|
D|-3-----------3---3---------------|---------------------------------|
A|---------------------------------|---------------------------------|
E|---------------------------------|---------------------------------|
  won't  be   bad   to    me           So the


VERSE


G|---------------------------------|---------------------------------|
D|---------------------------------|---------------------------------|
A|-6-----------6---5-----------5---|-3-----------1---3---1---3---1---|
E|---------------------------------|---------------------------------|
  birds  in the sky  won't be      sad and lonely cos they

G|---------------------------------|---------------------------------|
D|---------------------------------|---------------------------------|
A|-6-----------6---5-----------5---|-3-----------1---3---1---3---1---|
E|---------------------------------|---------------------------------|
  know  that  I    got my      one and only they'll be

G|---------------------------------|---------------------------------|
D|---------------------------------|---------------------------------|
A|---------------------------------|---------------------------------|
E|-4-----------4---4-------4---5---|-6-----------6---6-------6-------|
  glad         you're not bad           to

G|---------------------------------|---------------------------------|
D|---------------------------------|---------------------------------|
A|-------------------------4-------|-3-----------3---3-------3-------|
E|-6-----------6---6---------------|---------------------------------|
  me                           They'll be


OUTRO


G|---------------------------------|---------------------------------|
D|-3-----------3---3---------------|---------------------------------|
A|---------------------------------|-1-----------1---1---------------|
E|---------------------------------|---------------------------------|
  glad         you're not bad           to

G|---------------------------------|---------------------------------|
D|---------------------------------|---------------------------------|
A|-6-----------6---5-----------5---|-3-----------3---1-----------1---|
E|---------------------------------|---------------------------------|
  me                            to

G|---------------------------------|---------------------------------|
D|---------------------------------|---------------------------------|
A|-6-----------6---5-----------5---|-3-----------3---1-----------1---|
E|---------------------------------|---------------------------------|
  me                            to

G|---------------------------------|---------------------------------|
D|---------------------------------|---------------------------------|
A|-6-----------6---5-----------5---|-3-----------3---1---------------|
E|---------------------------------|---------------------------------|
  me

Almost there ...

Sign in to get your own page with links to favourite songs and more. You are just one click away...

Login with Facebook Login with Google