Log in

One click and you are in

Login with Facebook Login with Google

Why sign up and log in

Guitar Tabs Explorer
The Beatles bass tabs for And your bird can sing

And Your Bird Can Sing bass tab by The Beatles

The Beatles bass tabs for And your bird can sing

Bass tabs with lyrics

"And Your Bird Can Sing" - The Beatles

DISCLAIMER:
To be honest with you,
tabing this out has driven me insane.
The original recording isn't tuned to A=440,
and it makes it very difficult to pin down certain notes.
I've searched tabs and sheet music and they all say different things.
here is what i'm hearing.
I have "X's" marked on the systems i'm not 100% on.

With that said,
what's really important is the changes.
All of the chords are accurate.
As long as you play around the changes,
you're good.
The Form is also accurate.

If you want to try figuring it out for yourself,
there is a video on YouTube of the isolated Bass Track.
That's what I used for this tab.
I hope this helps.


 |E maj      |E maj      |E maj      |E maj      |
G|----------------|----------------|----------------|----------------|
D|----------------|----------------|----------------|----------------|
A|7---7-------5-6-|7---7-------5-6-|7---7-------5-6-|7---7-------5-6-|
E|-------57-7-----|-------57-5-----|-------57-7-----|-------57-7-----|
 |1 + 2 + 3 + 4 + |1 + 2 + 3 + 4 + |1 + 2 + 3 + 4 + |1 + 2 + 3 + 4 + |

 |E maj      |E maj      |E maj      |E maj      |
G|----------------|----------------|----------------|----------------|
D|----------------|----------------|----------------|----------------|
A|7---7-------5-6-|7---7-------5-6-|7---7-------5-7-|----7-----5-7---|
E|-------57-7-----|-------57-7-----|-------57-7-----|-------57-----7-|
 |1 + 2 + 3 + 4 + |1 + 2 + 3 + 4 + |1 + 2 + 3 + 4 + |1 + 2 + 3 + 4 + |

 |F# min     |A maj      |E maj      |E maj      |
G|----------------|----------------|----------------|----9-----------|
D|----------------|----------------|------x-6-7-8-9-|------x-6-7-8-9-|
A|9---9-------7-9/|12--11--9-9-9---|7---7-----------|7---------------|
E|--------9-9-----|----------------|----------------|----------------|
 |1 + 2 + 3 + 4 + |1 + 2 + 3 + 4 + |1 + 2 + 3 + 4 + |1 + 2 + 3 + 4 + |

 |E maj      |E maj      |E maj      |E maj      |
G|----------------|----------------|----------------|----------------|
D|----------------|----------------|----------------|----------------|
A|7---7-------5-6-|7---7-------5-7-|7---7-------5-7-|7---7-----5-7---|
E|--------7-5-----|--------7-5-----|--------7-5-----|--------7-------|
 |1 + 2 + 3 + 4 + |1 + 2 + 3 + 4 + |1 + 2 + 3 + 4 + |1 + 2 + 3 + 4 + |

 |F# min     |A maj      |E maj      |E maj      |
G|----------------|----------------|----9-----------|----9-----------|
D|----------------|----------------|------x-6-7-8-9-|------x-6-7-8-9-|
A|9---9-----7-9---|12--11--9-7-6-7-|7---------------|7---------------|
E|--------9-------|----------------|----------------|----------------|
 |1 + 2 + 3 + 4 + |1 + 2 + 3 + 4 + |1 + 2 + 3 + 4 + |1 + 2 + 3 + 4 + |

x|G# min     |G augmented   |B/F#      |C#7/F      |
G|----------------|.---------------|.---------------|.---------------|
D|6---6---------5-|5---5---------4-|4---4---------3-|3---3-----------|
A|----------4-6---|----------4-6---|----------4-6---|----------4-6-7-|
E|--------4-------|--------4-------|--------4-------|--------4-------|
 |1 + 2 + 3 + 4 + |1 + 2 + 3 + 4 + |1 + 2 + 3 + 4 + |1 + 2 + 3 + 4 + |

 |E maj      |F# min     |F# min     |B maj      |
G|----------------|----------------|----------------|----------------|
D|.---------------|----------------|----------------|----9-----------|
A|7---7---------7/|9---9-------7h9-|9-----7---9-----|----------------|
E|--------9-7-----|--------9-9-----|--9-----------9-|7-----0h7-7---7-|
 |1 + 2 + 3 + 4 + |1 + 2 + 3 + 4 + |1 + 2 + 3 + 4 + |1 + 2 + 3 + 4 + |

 |E maj      |E maj      |E maj      |E maj      |
G|----9-------9---|------------9---|------------9---|------------9---|
D|-------h9-------|-------h9-------|-------h9-------|-------h9-------|
A|7---------------|7---7-----------|7---7-----------|7---7-----------|
E|----------------|----------------|----------------|----------------|
 |1 + 2 + 3 + 4 + |1 + 2 + 3 + 4 + |1 + 2 + 3 + 4 + |1 + 2 + 3 + 4 + |

 |F# min     |A maj      |E maj      |E maj      |
G|------------11--|----------------|----9-----------|----9-----------|
D|-------h11------|----------------|------x-6-7-8-9-|------x-6-7-8-9-|
A|9---9----------/|12--11--9-7-6-7-|7---------------|7---------------|
E|----------------|----------------|----------------|----------------|
 |1 + 2 + 3 + 4 + |1 + 2 + 3 + 4 + |1 + 2 + 3 + 4 + |1 + 2 + 3 + 4 + |

x|G# min     |G augmented   |B/F#      |C#7/F      |
G|----------------|----------------|----------------|----------------|
D|6---6---------5-|----5-----------|4---4---------2-|3---3-----------|
A|----------4-6---|----------4-6---|----------4-6---|----------4-6-7-|
E|--------4-------|--------4-------|--------4-------|--------7-------|
 |1 + 2 + 3 + 4 + |1 + 2 + 3 + 4 + |1 + 2 + 3 + 4 + |1 + 2 + 3 + 4 + |

x|E maj      |F# min     |F# min     |B maj      |
G|----------------|----------------|----------------|----------------|
D|.---------------|----------------|----------------|----9-----------|
A|7---7---------7/|9---9-------7-8-|9---7-9-----7-9-|----------------|
E|--------9-7-----|--------9-9-----|--9-------9-----|7-----0h7-7-7///|
 |1 + 2 + 3 + 4 + |1 + 2 + 3 + 4 + |1 + 2 + 3 + 4 + |1 + 2 + 3 + 4 + |

 |E maj      |E maj      |E maj      |E maj      |
G|----------------|----------------|---------79-----|----------------|
D|----------------|----------------|--------9-------|----------------|
A|----------------|----------------|7---7---------7-|----7-----5-7---|
E|12--12--11--11--|9---9---7---7---|----------------|--------7-----7-|
 |1 + 2 + 3 + 4 + |1 + 2 + 3 + 4 + |1 + 2 + 3 + 4 + |1 + 2 + 3 + 4 + |

 |F# min     |A maj      |E maj      |E maj      |
G|----------------|----------------|----------------|----9-----------|
D|----------------|----------------|------x-6-7-8-9-|------x-6-7-8-9-|
A|9---9-----7-9---|12--11--9-7-6---|7---7-----------|7---------------|
E|--------9-----9-|--------------7-|----------------|----------------|
 |1 + 2 + 3 + 4 + |1 + 2 + 3 + 4 + |1 + 2 + 3 + 4 + |1 + 2 + 3 + 4 + |

 |F# min     |A maj      |E maj      |E maj      |
G|----9-----------|----9-----------|----9---.-.-.-.-|----9---.-.-.-.-|
D|------x-6-7-8-9-|------x-6-7-8-9-|------x-6-7-8-9-|------x-6-7-8-9-|
A|7---------------|7---------------|7---------------|7---------------|
E|----------------|----------------|----------------|----------------|
 |1 + 2 + 3 + 4 + |1 + 2 + 3 + 4 + |1 + 2 + 3 + 4 + |1 + 2 + 3 + 4 + |

 |F# min     |A maj      |E maj      |E maj      |
G|----------------|----------------|----9-----------|----9-----------|
D|----------------|----------------|------x-6-7-8-9-|------x-6-7-8-9-|
A|9---9-----7-9---|12--11--9-9-9-6-|7---------------|7---------------|
E|--------9-------|----------------|----------------|----------------|
 |1 + 2 + 3 + 4 + |1 + 2 + 3 + 4 + |1 + 2 + 3 + 4 + |1 + 2 + 3 + 4 + |

 |E maj      |E maj      |E maj      |A/E       |
G|----------------|----------------|----------------|--999-999-999-99|
D|----------------|----------------|----------------|----------------|
A|7---7-------5-6-|7---7-------5-6-|7---7-------5-6-|7---------------|
E|-------57-7-----|-------57-5-----|-------57-7-----|----------------|
 |1 + 2 + 3 + 4 + |1 + 2 + 3 + 4 + |1 + 2 + 3 + 4 + |1 + 2 + 3 + 4 + |

G|9---------------||
D|----------------||
A|----------------||
E|----------------||
 |1 + 2 + 3 + 4 + |

The Last 2 Bars are played in free time.
This tab is not 100% accurate.
However, i've been playing along to the song and it definitely works.
Again, as long as you work around the changes,
You're golden.

Please give me constructive criticism.

-Connor Larkin

Almost there ...

Sign in to get your own page with links to favourite songs and more. You are just one click away...

Login with Facebook Login with Google