Guitar Tabs Explorer
The Beatles guitar chords for And i love her (Ver. 3)

And I Love Her chords


Be the first to rate

And I Love Her chords by The Beatles (Ver. 3)

Guitar chords with lyrics

Print

Intro:
E|--------------------------|
B|--------------------------|
G|--------------------------|
D|--------------------------|
A|----0----3----2----0------|
E|--------------------------|

Am chord diagramAmAm
E|--------------------------|
B|--------------------------|
G|--------------------------|
D|--------------------------|
A|----0----3----2-----------|
E|-------------------0------|

Em chord diagramEmEm

Verse 1:
Am chord diagramAmAm              Em chord diagramEmEm
I give her all my love
Am chord diagramAmAm           Em chord diagramEmEm
That's all I do
Am chord diagramAmAm            Em chord diagramEmEm
And if you saw my love
C chord diagramCC              D chord diagramDD
You'd love her too
      G chord diagramGG
I love her

Verse 2:
Am chord diagramAmAm            Em chord diagramEmEm
She gives me everything
Am chord diagramAmAm          Em chord diagramEmEm
And tenderly
Am chord diagramAmAm          Em chord diagramEmEm
The kiss my lover brings
C chord diagramCC             D chord diagramDD
She brings to me
        G chord diagramGG
And I love her

Verse 3:
Em chord diagramEmEm           D chord diagramDD
A chord diagramAA love like ours
Em chord diagramEmEm           D chord diagramDD
Could never die
Em chord diagramEmEm         D chord diagramDD
As long as I
            Am chord diagramAmAm
Have you near me

Verse 4:
Am chord diagramAmAm              Em chord diagramEmEm
Bright are the stars that shine
Am chord diagramAmAm          Em chord diagramEmEm
Dark is the sky
Am chord diagramAmAm           Em chord diagramEmEm
I know this love of mine
C chord diagramCC            D chord diagramDD
Will never die
G chord diagramGG
And I love her
Am chord diagramAmAm              Em chord diagramEmEm
Bright are the stars that shine
Am chord diagramAmAm          Em chord diagramEmEm
Dark is the sky
Am chord diagramAmAm           Em chord diagramEmEm
I know this love of mine
C chord diagramCC            D chord diagramDD
Will never die
G chord diagramGG
And I love her


Outro:
E|--------------------------|
B|--------------------------|
G|--------------------------|
D|--------------------------|
A|----0----3----2----0------|
E|--------------------------|

Am chord diagramAmAm

E|--------------------------|
B|--------------------------|
G|--------------------------|
D|--------------------------|
A|----0----3----2-----------|
E|-------------------0------|

Em chord diagramEmEm

E|--------------------------|
B|--------------------------|
G|--------------------------|
D|--------------------------|
A|----0----3----2----0------|
E|--------------------------|

Am chord diagramAmAm

E|--------------------------|
B|--------------------------|
G|--------------------------|
D|--------------------------|
A|----0----3----2-----------|
E|--------------------------|

Other versions of And I Love Her

- And I love herChords
- And I love her (Ver. 2)Chords
- And I love hereChords
- And I love herTabs
- And I love her (Ver. 2)Tabs
- And I love her (acoustic)Tabs
- And I love her-(Ver. 4)Tabs
- And I love her-(Ver. 5)Tabs

Comment this song and these guitar chords

Do you have corrections, comments on the guitar chords, thoughts about the song or a message to the author? Write them below.