Log in

One click and you are in

Login with Facebook Login with Google

Why sign up and log in

Guitar Tabs Explorer
The Beatles guitar tabs for And i love her (acoustic)

Guitar tabs with lyrics

Tuning: 1

Difficulty: 1

And I Love Her
The Beatles
Intro   A chord diagramF minorFm        A chord diagramD#D#       A chord diagramF minorFm

E--------1--------3--------1--|
B--------1--------4--------1--|
G--------1--------3--------1--|
D----1-0-3----1-0-5----1-0-3--|
A--1-----3--1-----6--1-----3--|
E--------1--------3--------1--|


           A chord diagramC minorCm
I give her all my love
A chord diagramF minorFm              A chord diagramC minorCm
   That's all I do
A chord diagramF minorFm            A chord diagramC minorCm
   And if you saw my love
A chord diagramG#G#                A chord diagramBb majorBb
   You'd love her too
    A chord diagramD#D#
I love her

(note, to match original recording play next verse chords
 as barre chords @ 8th fret and pick an arpeggio pattern
 emphasising 1st,2nd, & 3rd strings)


A chord diagramF minorFm              A chord diagramC minorCm
   She gives me everything
A chord diagramF minorFm           A chord diagramC minorCm
   And tenderly
A chord diagramF minorFm             A chord diagramC minorCm
   The kiss my lover brings
A chord diagramG#G#               A chord diagramBb majorBb A chord diagramBb7Bb7
   She brings to me
           A chord diagramD#D#
And I love her

A chord diagramC minorCm             A chord diagramBb majorBb
   A chord diagramA augmentedA love like ours
A chord diagramC minorCm             A chord diagramG minorGm
   Could never die
A chord diagramC minorCm           A chord diagramG minorGm
   As long as I
         A chord diagramBb majorBb      A chord diagramBb7Bb7
Have you near me

E--------1--|
B--------1--|
G--------1--|
D----1-0-3--|
A--1-----3--|
E--------1--|

(to match original recording accompany next verse chords
 with barre chords @ 8th fret and pick an arpeggio   pattern

emphasising 1st,2nd, & 3rd strings)

A chord diagramF minorFm                A chord diagramC minorCm
   Bright are the stars that shine
A chord diagramF minorFm             A chord diagramC minorCm
   Dark is the sky
A chord diagramF minorFm             A chord diagramC minorCm
   I know this love of mine
A chord diagramG#G#            A chord diagramBb majorBb  A chord diagramBb7Bb7
   will never die
      A chord diagramD#D#
And I love her


Riff  A chord diagramF# minorF#m A chord diagramC# minorC#m A chord diagramF# minorF#m  A chord diagramC# minorC#m A chord diagramF# minorF#m A chord diagramC# minorC#m  A chord diagramA augmentedA  A chord diagramBB A chord diagramB7B7  A chord diagramC# minorC#m A chord diagramE MajorE  (or)

E--2-----------------------------------------------------------------|
B--2--------4-2-5-------4-2-------4-2-5-5-2--------------------------|
G--2------2-----------2---------2-----------2------------------------|
D--4--4-6---------4-6-------4-6---------------6-4-------6------------|
A--4----------------------------------------------2-2-4---2----------|
E--2--------------------------------------------------------4-2-0-2--|


A chord diagramF# minorF#m                A chord diagramC# minorC#m
    Bright are the stars that shine
A chord diagramF# minorF#m             A chord diagramC# minorC#m
    Dark is the sky
A chord diagramF# minorF#m             A chord diagramC# minorC#m
    I know this love of mine
A chord diagramA augmentedA              A chord diagramB7B7
    Will never die
      A chord diagramE MajorE         A chord diagramF# minorF#m  A chord diagramE MajorE  A chord diagramF# minorF#m  A chord diagramC#C#
And I love her

           E----------2-------0----------2---------4---|
           B----------2-------0----------2---------6---|
           G----------2-------1----------2---------6---|
           D----2-1---4---2---2----2-1---4----2-1--6---|
           A--2-----4-4-2---2-2--2-----4-4--2------4---|
           E----------2-------0----------2---------4---|

And I Love Her (acoustic) tab

The Beatles guitar tabs for And i love her (acoustic) "And I Love Her" is a single The Beatles released in 1964. It was also included on their third album "A Hard Day's Night". These guitar chords show you how to play an acoustic version of "And I Love Her".

Other versions of And I Love Her

And I love herChords
And I love her (Ver. 2)Chords
And I love her (Ver. 3)Chords
And I love hereChords
And I love herTabs
And I love her (Ver. 2)Tabs
And I love her-(Ver. 4)Tabs
And I love her-(Ver. 5)Tabs

Almost there ...

Sign in to get your own page with links to favourite songs and more. You are just one click away...

Login with Facebook Login with Google