Guitar Tabs Explorer
The Beatles guitar tabs for And i love her (Ver. 4)

And I Love Her tab


4.7 / 5 [6 votes]


Lenom5Author: Lenom5

And I Love Her tab by The Beatles (Ver. 4) (Solo)

Learn to play the And I Love Her guitar solo by The Beatles with these guitar tabs.

Guitar tabs

Print
  • Tuning: Standard tuning
-------------------------------------------------------------------------------
                 And I Love Her - guitar solo - The Beatles
-------------------------------------------------------------------------------


Tabbed by: Lenom Jon

Tuning: Standard tuning



 guitar solo
          Gm chord diagramGmGm         Gm chord diagramGmGm          Dm chord diagramDmDm     Gm chord diagramGmGm      Dm chord diagramDmDm       Gm chord diagramGmGm            Dm chord diagramDmDm
e|---------------------------------------------------------------------------|
B|---------------------------5-3-3/6-----------5\3-------------5-3-----3/6---|
G|-----------------------2-3---------------2-3-------------2-3---------------|
D|--------3-2----------5----------------5----------------5-------------------|
A|------3-----5--------------------------------------------------------------|
E|---------------------------------------------------------------------------|

       Bb chord diagramBbBb          C chord diagramCC          F chord diagramFF              Gm chord diagramGmGm
e|---------------------------------------------------------------------------|
B|------6-3------------------------------------------------------------------|
G|----------3-2--------------------------------------------------------------|
D|---------------3/5-----------7---------------------------------------------|
A|--------------------3-3-3/5------3-----------------------------------------|
E|------------------------------------5-3-1-1/3------------------------------|



************************************

| x   Dead note
| g   Grace note
| (n) Ghost note
| h   Hammer-on
| p   Pull-off
| r   Release
| >   Accented note
| t   Tapping
| b   Bend
| br  Bend release
| pb  Pre-bend
| pbr Pre-bend release
| /   Slide up
| \   Slide down
| ~   Vibrato
| s   Slap
| P   Pop
| PM  Palm mute
| TR  Trill
| N   Tremolo

************************************

Other versions of And I Love Her

- And I love herChords
- And I love her (Ver. 2)Chords
- And I love her (Ver. 3)Chords
- And I love hereChords
- And I love herTabs
- And I love her (Ver. 2)Tabs
- And I love her (acoustic)Tabs
- And I love her-(Ver. 5)Tabs

Comment this song and these guitar tabs

Do you have corrections, comments on the guitar tabs, thoughts about the song or a message to the author? Write them below.