Guitar Tabs Explorer
The Beatles bass tabs for All you need is love

All You Need Is Love bass tab


Be the first to rate

All You Need Is Love bass tab by The Beatles

Bass tabs

Print
beatles-all_you_need_is_love

TablEdited by Jan Bjorklund, Finland <jani_bjorklund@yahoo.se>
You are welcome to request for tabs!
Fingering and positions as suggested by TablEdit, please use common sense!


TablEdited by Jan Bjorklund
Tuning : E A D G 	Time Signature: 4/4

   |       |       |       |          |       |       |
||0--------------------------------|--------------------------|
|*----------------4----------------|-2---------------0---2----|
|*---------------------------------|--------------------------|
||---------------------------------|--------------------------|

   |       |       |       |          |       |       |
|-0--------------------------------|--------------------------|
|-----------------4----------------|-2---------------0---2----|
|----------------------------------|--------------------------|
|----------------------------------|--------------------------|

   |       |       |       |          |       |       |       |
|-2---------------0----------------|----------------------------------|
|----------------------------------|-4-----------2---0----------------|
|----------------------------------|---------------------3---2---3----|
|----------------------------------|----------------------------------|

   |       |       |       |          |       |       |
|----------------------------------|-------------------------||
|-0-------0------------------------|---------0-------0---2---*|
|-----------------3-------3--------|-2---3-------------------*|
|----------------------------------|-------------------------||

   |       |       |       |          |       |       |       |
||0---------------2----------------|-------------------------0--------|
|*---------------------------------|-0---------------0---2------------|
|*---------------------------------|----------------------------------|
||---------------------------------|----------------------------------|

   |       |       |       |          |       |       |       |
|-----------------2----------------|---------7------------------------|
|----------------------------------|-------------------------5--------|
|----------------------------------|-5---------------5---7------------|
|----------------------------------|----------------------------------|

   |       |       |       |          |       |       |       |
|-----------------7---7---7---7----|---------9---------------7--------|
|---------5------------------------|----------------------------------|
|----------------------------------|-7--------------------------------|
|----------------------------------|-----------------10---------------|

   |       |       |       |        >3|       |
|----------------------------------|-0---------------||
|-----------------0-------0--------|---------0---2---*|
|-3-------3------------------------|-----------------*|
|----------------------------------|-----------------||

   |       |       |       |          |       |       |
|-0-------0------------------------|--------------------------|
|-----------------4-------4--------|-2-------2-------0---2----|
|----------------------------------|--------------------------|
|----------------------------------|--------------------------|

   |       |       |       |          |       |       |
|-0-------0------------------------|--------------------------|
|-----------------4-------4--------|-2-------2-------0---2----|
|----------------------------------|--------------------------|
|----------------------------------|--------------------------|

   |       |       |       |          |       |       |       |
|-2-------2-------0-------0--------|----------------------------------|
|----------------------------------|-4---------------0----------------|
|----------------------------------|---------------------3---2---3----|
|----------------------------------|----------------------------------|

   |       |       |       |          |       |       |
|----------------------------------|---------------------0---||
|-0-------0------------------------|-0---2---4-------4-------*|
|-----------------3-------3--------|-------------------------*|
|----------------------------------|-------------------------||

   |       |       |       |          |       |       |       |
|-0-------0-------2-------2--------|-------------------------0--------|
|----------------------------------|-0-------0-------0---2------------|
|----------------------------------|----------------------------------|
|----------------------------------|----------------------------------|

   |       |       |       |          |       |       |       |
|---------0-------2-------2--------||0-------0------------------------|
|----------------------------------|*----------------0-------0---2----|
|----------------------------------|*---------------------------------|
|----------------------------------||---------------------------------|

   |       |       |       |
|-0-------0------------------------|
|-----------------0-------0---2----|
|----------------------------------|
|----------------------------------|

Comment this song and these bass tabs

Do you have corrections, comments on the bass tabs, thoughts about the song or a message to the author? Write them below.