Log in

One click and you are in

Login with Facebook Login with Google

Why sign up and log in

Guitar Tabs Explorer
The Beatles guitar chords for All my loving ukulele

Guitar chords with lyrics

Tuning: G C E A (G C E A)


Tuning: Standard

CHORDS
     g-C-E-A
F#m    2-1-2-0
B7    2-3-2-2
E     1-4-0-2
C#m    1-4-4-4
A     2-1-0-0
D     2-2-2-0
B     4-3-2-2
Caug   1-0-0-3
Solo:
 E :
 1 + 2 + 3 + 4 +
A|----------------|
E|----0---2---4---|
C|----------------|
g|--4-------------|
 A                 E
 1 + 2 + 3 + 4 + 1 + 2 + 3 + 4 + 1 + 2 + 3 + 4 + 1 + 2 + 3 + 4 +
A|----0-----------|4-----2----0----|----2-----------|2-----0---------|
E|----------0-----|----------------|4---------------|------------4---|
C|----------------|4-----2----1----|4-----4---------|4-----3-----1---|
g|----0-----------|----------------|----------------|----------------|
 F#m       B        E        E
 1 + 2 + 3 + 4 + 1 + 2 + 3 + 4 + 1 + 2 + 3 + 4 + 1 + 2 + 3 + 4 +
A|----0-----------|4-----0----4----|-----------2---2|----------------|
E|2-----------2---|2----------2----|0---------------|0---------------|
C|1-----1---------|------1---------|----------------|----------------|
g|----------------|----------------|--------0h1-0h1-|----------------|
                      (triplets)

---------------------------------------------------------------------------

Verse 1:
      F#m      B7     E      C#m
Close your eyes and I´ll kiss you, tomorrow I´ll miss you
 A      F#m    D   B7
Remember I´ll always be true
     F#m    B7       E     C#m
And then while I´m away I´ll write home everyday
     A      B     E
And I´ll send all my loving to you


Verse 2:
    F#m      B7      E     C#m
I´ll pretend that I´m kissing, the lips I am missing
  A      F#m       D   B7
And hope that my dreams will come true
     F#m    B7       E     C#m
And then while I´m away I´ll write home everyday
     A      B     E
And I´ll send all my loving to you


Chorus:
    C#m  Caug      E
All my loving I will send to you
    C#m   Caug      E
All my loving, darling I´ll be true


Solo:
| A | % | E | % | F#m | B | E | E  |
                      (break)


Verse 3:
      F#m      B7     E      C#m
Close your eyes and I´ll kiss you, tomorrow I´ll miss you
 A      F#m    D   B7
Remember I´ll always be true
     F#m    B7       E     C#m
And then while I´m away I´ll write home everyday
     A      B     E
And I´ll send all my loving to you


Chorus:
    C#m  Caug       E
All my loving I´ll will send to you
    C#m   Caug      E
All my loving, darling I´ll be true


Coda:
    C#m
All my loving
    E
All my loving
         C#m
Ooh, ooh, all my loving
        E   E
I will send to you

Almost there ...

Sign in to get your own page with links to favourite songs and more. You are just one click away...

Login with Facebook Login with Google