Log in

One click and you are in

Login with Facebook Login with Google

Why sign up and log in

Guitar Tabs Explorer
The Beatles bass tabs for A hard days night

Bass tabs

Tuning : E A D G 	Time Signature: 4/4


||--|--------|--------|----------|--------|--------|--------|
||0-|--------|--------|----------|--------|--------|--------|
||--|----3-3-|--------|----------|--------|----3-3-|--------|
||--|3-3-----|3-3-3-3-|1-1-1-1-1-|3-3-3-3-|3-3-----|3-3-3-3-|
|----------|--------|----------|--------|--------|--------------|
|----------|--------|----------|0-0-0-0-|--------|--0-0-0-0-0-0-|
|----------|--------|3-3-3-3-3-|--------|----3-3-|--------------|
|1-1-1-1-1-|3-3-3-3-|----------|--------|3-3-----|3-------------|
 E
|--------|--------|----------|--------|--------|--------|----------|
|--------|--------|----------|--------|--------|--------|----------|
|----3-3-|--------|----------|--------|----3-3-|--------|----------|
|3-3-----|3-3-3-3-|1-1-1-1-1-|3-3-3-3-|3-3-----|3-3-3-3-|1-1-1-1-1-|


|--------|----------|--------|--------|--------|--------|--------|
|--------|----------|0-0-0-0-|--------|--------|--------|--------|
|--------|3-3-3-3-3-|--------|----3-3-|--------|2-2-2-2-|--------|
|3-3-3-3-|----------|--------|3-3-----|3-3-3-3-|--------|0-0-0-0-|


|--------|--------|--------|--------|--------|--------|--------|
|--------|--------|--------|--------|--------|0-0-0-0-|--------|
|2-2-2-2-|2-2-2-2-|--------|--------|3-3-3-3-|--------|----3-3-|
|--------|--------|3-3-3-3-|0-0-0-0-|--------|--------|3-3-----|


|--------|----------|--------|--------|--------|----------|--------|
|--------|----------|--------|--------|--------|----------|--------|
|--------|----------|--------|----3-3-|--------|----------|--------|
|3-3-3-3-|1-1-1-1-1-|3-3-3-3-|3-3-----|3-3-3-3-|1-1-1-1-1-|3-3-3-3-|

|----------|--------|--------|--------------|--------|--------|
|----------|0-0-0-0-|--------|--0-0-0-0-0-0-|--------|--------|
|3-3-3-3-3-|--------|----3-3-|--------------|----3-3-|--------|
|----------|--------|3-3-----|3-------------|3-3-----|3-3-3-3-|


|----------|----------|--------|----------|----------|------------|
|----------|----0-0-0-|--------|----------|----------|------------|
|----------|----------|----3-3-|----------|----------|--------0-2-|
|1-1-1-1-1-|3-3-------|3-3-----|3-3-3-3-3-|1-1-1-1-1-|3-3-3-3-----|


|----------|--------|--------|--------|--------|--------|--------|
|----------|0-0-0-0-|--------|--------|--------|--------|--------|
|3-3-3-3-3-|--------|----3-3-|--------|2-2-2-2-|--------|2-2-2-2-|
|----------|--------|3-3-----|3-3-3-3-|--------|0-0-0-0-|--------|


|--------|----------|--------|--------------|----------------|
|--------|----------|--------|--------------|0-0-0-0-0-0-0-0-|
|2-2-2-2-|----------|--------|3-3-3-3-3-3-3-|----------------|
|--------|3-3-3-3-3-|0-0-0-0-|--------------|----------------|


|--------|--------|----------|--------|--------|--------|----------|
|--------|--------|----------|--------|--------|--------|----------|
|----3-3-|--------|----------|--------|----3-3-|--------|----------|
|3-3-----|3-3-3-3-|1-1-1-1-1-|3-3-3-3-|3-3-----|3-3-3-3-|1-1-1-1-1-|


|--------|----------|--------|--------|----------|--------|--------|
|--------|----------|0-0-0-0-|--------|----0-0-0-|--------|--------|
|--------|3-3-3-3-3-|--------|----3-3-|----------|----3-3-|----3-3-|
|3-3-3-3-|----------|--------|3-3-----|3-3-------|3-3-----|3-3-----|


|--------|--||
|--------|0-||
|----3-3-|--||
|3-3-----|--||

Almost there ...

Sign in to get your own page with links to favourite songs and more. You are just one click away...

Login with Facebook Login with Google