Log in

One click and you are in

Login with Facebook Login with Google

Why sign up and log in

Guitar Tabs Explorer
The Beatles guitar tabs for 8 days a week

Guitar tabs

8 Days a week(Acoustic)
Standard Tuning

The Beattles
intro
     A chord diagramD MajorD                      F/D                    A chord diagramG+G
A chord diagramE MajorE||--2----2----3----2----|--5----5----6----5----|--7----7----8----7----|
A chord diagramBB||--3----3----3----3----|--6----6----6----6----|--8----8----8----8----|
A chord diagramG+G||--2----2----2----2----|--5----5----5----5----|--7----7----7----7----|
A chord diagramD MajorD||--0----0----0----0----|--0----0----0----0----|--0----0----0----0----|
A chord diagramA augmentedA||----------------------|----------------------|----------------------|
A chord diagramE MajorE||----------------------|----------------------|----------------------|

x7          Verse
           A chord diagramD MajorD                      A chord diagramE minorEm                     A chord diagramG+G
--14----|--2----2----2----2----|--0----0----0----0----|--3----3----3----3----|
--15----|--3----3----3----3----|--0----0----0----0----|--0----0----0----0----|
--14----|--2----2----2----2----|--0----0----0----0----|--0----0----0----0----|
--0-----|--0----0----0----0----|--2----2----2----2----|--0----0----0----0----|
--------|----------------------|--2----2----2----2----|--2----2----2----2----|
--------|----------------------|--0----0----0----0----|--3----3----3----3----|

                         Pre-Chorus
  A chord diagramD MajorD
--2----2----2----2----|--2----2----2----2----|--0----0----0----0----|--2----|
--3----3----3----3----|--2----2----2----2----|--0----0----0----0----|--2----|
--2----2----2----2----|--4----4----4----4----|--0----0----0----0----|--4----|
--0----0----0----0----|--4----4----4----4----|--2----2----2----2----|--4----|
----------------------|--2----2----2----2----|--2----2----2----2----|--2----|
----------------------|----------------------|--0----0----0----0----|-------|

          chorus

--0----|--0----|--0----|--0----|--0----|------|------||
--0----|--2----|--0----|--2----|--0----|------|------||
--1----|--2----|--0----|--2----|--1----|------|------||
--2----|--2----|--2----|--2----|--2----|------|------||
--2----|--0----|--2----|--0----|--2----|------|------||
--0----|-------|--0----|-------|--0----|------|------||


Intro

Verse

Pre-Chorus

Verse

Chorus

Verse

Pre-Chorus

Intro

Almost there ...

Sign in to get your own page with links to favourite songs and more. You are just one click away...

Login with Facebook Login with Google