Log in

One click and you are in

Login with Facebook Login with Google

Why sign up and log in

Guitar Tabs Explorer
Beach Weather bass tabs for Sex drugs etc

Bass tabs

Tuning: Standard (E A D G)

Key: G

Difficulty: Novice
Intro:
G|---------------------|---------------------|
D|---------------------|---------------------| (x2)
A|--3---3--3-2-0-0--2--|------------------5--|
E|---------------------|--0-------2--3-------|


Verse 1:
G|---------------------|---------------------|
D|---------------------|---------------------| (x4)
A|--3---3--3-2-0-0--2--|------------------5--|
E|---------------------|--0-------2--3-------|


Chorus:
G|---------------------|---------------------|
D|---------------------|---------------------| (x4)
A|--3---3--3-2-0-0--2--|------------------5--|
E|---------------------|--0-------2--3-3-----|


Verse 2:
G|---------------------|---------------------|
D|---------------------|---------------------| (x4)
A|--3---3--3-2-0-0--2--|------------------5--|
E|---------------------|--0-------2--3-------|


Chorus:
G|---------------------|---------------------|
D|---------------------|---------------------| (x4)
A|--3---3--3-2-0-0--2--|------------------5--|
E|---------------------|--0-------2--3-------|

Interlude:
G|---------------------|---------------------|---------------------|---------------------|
D|---------------------|---------------------|---------------------|---------------------|
A|--3----------0-0-----|---------------------|--3----------0-0-----|---------------------|
E|---------------------|--0----------3-3-----|---------------------|--0-------2--3---/3--|


Verse 2:
G|---------------------|---------------------|
D|---------------------|---------------------| (x2)
A|--3---3--3-2-0-0--2--|------------------5--|
E|---------------------|--0-------2--3-------|


Chorus:
G|---------------------|---------------------|
D|---------------------|---------------------| (x4)
A|--3---3--3-2-0-0--2--|------------------5--|
E|---------------------|--0-------2--3-------|


************************************

| /  Slide up

************************************

Almost there ...

Sign in to get your own page with links to favourite songs and more. You are just one click away...

Login with Facebook Login with Google