Log in

One click and you are in

Login with Facebook Login with Google

Why sign up and log in

Guitar Tabs Explorer
Beach Bunny bass tabs for Painkiller

Bass tabs

Verse 1:
You’ve been such a…
G|------------------------------------|
D|------------------------------------|
A|-------------------7-77-70----------|
E|-5555555555555555---------7-757-77--|

Careful with your…
G|------------------------------------|
D|------------------------------------|
A|-------------------7-77-70----------|
E|-5555555555555555---------7-757-77--|

Said this wouldn’t… (these are 14s and 12s)
G|------------------------------------|
D|------------------------------------|
A|-------------------7-77-71214-------|
E|-5555555555555555-------------------|

G|------------------------------------|
D|------------------------------------|
A|-141214-1414------------------------|
E|------------------------------------|

All of your apologies…
G|------------------------------------|
D|------------------------------------|
A|-9-999-999-9-99---------------------|
E|----------------5-5-55-7-7-77-------|


Chorus:
After all this time…
G|------------------------------------|
D|------------------------------------|
A|-7-77-777----------9-99-999---------|
E|----------7-77-777----------5555557-|

Where you ever mine… (12s and 11s)
G|------------------------------------|
D|------------------------------------|
A|-7-77-777----------9-99-999---------|
E|----------7-77-777------------------|

G|------------------------------------|
D|------------------------------------|
A|-12121212121211---------------------|
E|------------------------------------|

Every conversation…
G|------------------------------------|
D|------------------------------------|
A|-7-77-777----------9-99-999---------|
E|----------7-77-777----------5555557-|

Sorry’s just another…
G|------------------------------------|
D|------------------------------------|
A|-7-77-777----------9-99-999---------|
E|----------7-77-777------------------|

G|------------------------------------|
D|------------------------------------|
A|-12121212121211---------------------|
E|------------------------------------|

Verse 2:
Do I look like…
G|------------------------------------|
D|------------------------------------|
A|-------------------7-77-70----------|
E|-5555555555555555---------7-757-77--|

Feeling insecure…
G|------------------------------------|
D|------------------------------------|
A|-------------------7-77-70----------|
E|-5555555555555555---------7-757-77--|

Hard to break… (these are 14s and 12s)
G|------------------------------------|
D|------------------------------------|
A|-------------------7-77-71214-------|
E|-5555555555555555-------------------|

G|------------------------------------|
D|------------------------------------|
A|-141214-1414------------------------|
E|------------------------------------|


Chorus:
After all this time…
G|------------------------------------|
D|------------------------------------|
A|-7-77-777----------9-99-999---------|
E|----------7-77-777----------5555557-|

Where you ever mine… (12s and 11s)
G|------------------------------------|
D|------------------------------------|
A|-7-77-777----------9-99-999---------|
E|----------7-77-777------------------|

G|------------------------------------|
D|------------------------------------|
A|-12121212121211---------------------|
E|------------------------------------|

Every conversation…
G|------------------------------------|
D|------------------------------------|
A|-7-77-777----------9-99-999---------|
E|----------7-77-777----------5555557-|

Sorry’s just another…
G|------------------------------------|
D|------------------------------------|
A|-7-77-777----------9999999999999999-|
E|----------7-77-777------------------|

G|------------------------------------|
D|------------------------------------|
A|-1212121212121212121212121212-------|
E|------------------------------------|


Bridge:
G|------------------------------------|
D|------------------------------------|
A|------------------7-7-777-----------|
E|-5-5-555--5-5-555---------7-7-777---|

Almost there ...

Sign in to get your own page with links to favourite songs and more. You are just one click away...

Login with Facebook Login with Google