Log in

One click and you are in

Login with Facebook Login with Google

Why sign up and log in

Guitar Tabs Explorer
Beach Bunny bass tabs for Cloud 9

Bass tabs

Tuning: Standard (E A D G)


Verse 1:

G|-----------------------------------------|
D|-----------------------------------------|
A|---7--7-7---7--7-7-----------------------|
E|---------------------5--5-5---5--5-5-----|

G|-----------------------------------------|
D|-----------------------------------------|
A|------------------7--7--7-7---7--7-7-----|
E|---2--2-2---5-5--------------------------|

G|-----------------------------------------|
D|-----------------------------------------|
A|------------------------------------7--7-|
E|---5--5-5---5--5-5---2--2-2---5-5--------|

G|-----------------------------------------|
D|-----------------------------------------|
A|7-7-7-7-7-7------------------------------|
E|-----------------------------------------|


Chorus:

G|-----------------------------------------|
D|-----------------------------------------|
A|-----------------------------------------|
E|--5-5-5-5-5-5-5-5-5-5-5-5-5-5-5-5--------|

G|-----------------------------------------|
D|-----------------------------------------|
A|--7-7-7-7-7-7-7-7------------------------|
E|------------------7-7-7-7-7-7-7-7--------|

G|-----------------------------------------|
D|-----------------------------------------|
A|-----------------------------------------|
E|--5-5-5-5-5-5-5-5-5-5-5-5-5-5-5-5--------|

G|-----------------------------------------|
D|-----------------------------------------|
A|--7-7-7-7-7-7-7-7------------------------|
E|------------------7-7-7-7-7-7-7-7--------|

G|-----------------------------------------|
D|-----------------------------------------|
A|-----------------------------------------|
E|--2-2-2-2-2-2-2-2-5-5-5-5-5-5-5-5--------|

G|-----------------------------------------|
D|-----------------------------------------|
A|--7-7-7-7-7-7-7-7------------------------|
E|------------------7-7-7-7-7-7-7-7--------|

Bridge:

G|-----------------------------------------|
D|-----------------------------------------|
A|-----------------------------------------|
E|---2-2-2-2-2-2-2-2-2-2-2-2-2-2-2-2-5-5---|

G|-----------------------------------------|
D|--------------2-2-4-4-6-6-7-7------------|
A|--2-2-4-4-5-5----------------------------|
E|-----------------------------------------|


Verse 2:

G|-----------------------------------------|
D|-----------------------------------------|
A|---7--7-7---7--7-7-----------------------|
E|---------------------5--5-5---5--5-5-----|

G|-----------------------------------------|
D|-----------------------------------------|
A|------------------7--7--7-7---7--7-7-----|
E|---2--2-2---5-5--------------------------|

G|-----------------------------------------|
D|-----------------------------------------|
A|------------------------------------7--7-|
E|---5--5-5---5--5-5---2--2-2---5-5--------|

G|-----------------------------------------|
D|-----------------------------------------|
A|7-7-7-7-7-7------------------------------|
E|-----------------------------------------|


Chorus:

G|-----------------------------------------|
D|-----------------------------------------|
A|-----------------------------------------|
E|--5-5-5-5-5-5-5-5-5-5-5-5-5-5-5-5--------|

G|-----------------------------------------|
D|-----------------------------------------|
A|--7-7-7-7-7-7-7-7------------------------|
E|------------------7-7-7-7-7-7-7-7--------|

G|-----------------------------------------|
D|-----------------------------------------|
A|-----------------------------------------|
E|--5-5-5-5-5-5-5-5-5-5-5-5-5-5-5-5--------|

G|-----------------------------------------|
D|-----------------------------------------|
A|--7-7-7-7-7-7-7-7------------------------|
E|------------------7-7-7-7-7-7-7-7--------|

G|-----------------------------------------|
D|-----------------------------------------|
A|-----------------------------------------|
E|--2-2-2-2-2-2-2-2-5-5-5-5-5-5-5-5--------|

G|-----------------------------------------|
D|-----------------------------------------|
A|--7-7-7-7-7-7-7-7------------------------|
E|------------------7-7-7-7-7-7-7-7--------|


Bridge:

G|-----------------------------------------|
D|-----------------------------------------|
A|-----------------------------------------|
E|---2-2-2-2-2-2-2-2-2-2-2-2-2-2-2-2-5-5---|

G|-----------------------------------------|
D|--------------2-2-4-4-6-6-7-7------------|
A|--2-2-4-4-5-5----------------------------|
E|-----------------------------------------|


Instrumental:

G|-----------------------------------------|
D|--------7-7--4-4--4-7-4-7-4--------------|
A|---7-7-----------------------------------|
E|-----------------------------------------|

G|-----------------------------------------|
D|--------7-7--4--4-4-4-4-7-7--------------|
A|---7-7-----------------------------------|
E|-----------------------------------------|

G|-----------------------------------------|
D|--------7-7--4-4--4-7-4-7-4--------------|
A|---7-7-----------------------------------|
E|-----------------------------------------|

G|-----------------------------------------|
D|--------7-7--4--4-4-4-4-7-7--------------|
A|---7-7-----------------------------------|
E|-----------------------------------------|

G|-----------------------------------------|
D|--------7-7--4-4--4-7-4-7-4--------------|
A|---7-7-----------------------------------|
E|-----------------------------------------|

G|-----------------------------------------|
D|--------7-7--4-4---7-7-7-7---------------|
A|---7-7-----------------------------------|
E|-----------------------------------------|

G|-----------------------------------------|
D|--------7-7--4-4--4-7-4-7-4--------------|
A|---7-7-----------------------------------|
E|-----------------------------------------|

G|-----------------------------------------|
D|--------7-7--4-4---7-7-7-0---------------|
A|---7-7-----------------------------------|
E|-----------------------------------------|


Chorus:

G|-----------------------------------------|
D|-----------------------------------------|
A|-----------------------------------------|
E|--5-5-5-5-5-5-5-5-5-5-5-5-5-5-5-5--------|

G|-----------------------------------------|
D|-----------------------------------------|
A|--7-7-7-7-7-7-7-7------------------------|
E|------------------7-7-7-7-7-7-7-7--------|

G|-----------------------------------------|
D|-----------------------------------------|
A|-----------------------------------------|
E|--5-5-5-5-5-5-5-5-5-5-5-5-5-5-5-5--------|

G|-----------------------------------------|
D|-----------------------------------------|
A|--7-7-7-7-7-7-7-7------------------------|
E|------------------7-7-7-7-7-7-7-7--------|

G|-----------------------------------------|
D|-----------------------------------------|
A|-----------------------------------------|
E|--2-2-2-2-2-2-2-2-5-5-5-5-5-5-5-5--------|

G|-----------------------------------------|
D|-----------------------------------------|
A|--7-7-7-7-7-7-7-7------------------------|
E|------------------7-7-7-7-7-7-7-7--------|


Outro:

G|-----------------------------------------|
D|-----------------------------------------|
A|-----------------------------------------|
E|---2-2-2-2-2-2-2-2-2-2-2-2-2-2-2-2-------|

G|-----------------------------------------|
D|-----------------------------------------|
A|--------------------------------------7--|
E|--5-5-5-5-5-5-5-5-5-5-5-5-5-5-5-5--------|

Almost there ...

Sign in to get your own page with links to favourite songs and more. You are just one click away...

Login with Facebook Login with Google