Log in

One click and you are in

Login with Facebook Login with Google

Why sign up and log in

Guitar Tabs Explorer
Beabadoobee bass tabs for She plays bass

Bass tabs with lyrics

Tuning: Standard (E A D G)

Key: Am


Verse 1:

  Hey,                              won't you call me back
G|-------------------------|----------9------11------|-------------------------|----------9h11p9---------|
D|-------------------------|-------------------------|-------12-------12-------|-12--------------12-9----|
A|-------12-------12-------|-12----------------------|-10-10----10-10----10-10-|----10-10-------------12-|
E|-10-10----10-10----10-10-|----10-10---(10)---------|-------------------------|-------------------------|

'Cause I've                         been waiting for your text back
G|-------------------------|----------9------11------|-------------------------|----------9h11p9---------|
D|-------------------------|-------------------------|-------12-------12-------|-12--------------12-9----|
A|-------12-------12-------|-12----------------------|-10-10----10-10----10-10-|----10-10-------------12-|
E|-10-10----10-10----10-10-|----10-10---(10)---------|-------------------------|-------------------------|

  It hurts                            my brain
G|-------------------------|----------9------11------|-------------------------|----------9h11p9---------|
D|-------------------------|-------------------------|-------12-------12-------|-12--------------12-9----|
A|-------12-------12-------|-12----------------------|-10-10----10-10----10-10-|----10-10-------------12-|
E|-10-10----10-10----10-10-|----10-10---(10)---------|-------------------------|-------------------------|

 This chick,                               who        plays bass
G|-------------------------|----------9------11------|----------------|------------------|
D|-------------------------|-------------------------|----------------|------------------|
A|-------12-------12-------|-12----------------------|-10~------------|------------------|
E|-10-10----10-10----10-10-|----10-10---(10)---------|----------------|----------12-12-9-|


Chorus:

               She plays bass,                       she plays bass
G|---------------------------|----------------------|------------------------|----------------------|
D|---------------------------|-------------14-12----|------------------------|-------14-14-12-------|
A|---------------12----------|-12-12-12-12-------14-|------------------------|----------------14-12-|
E|-10--10--10-10----10-10/12-|----------------------|-12--12--12-12-12-12-12-|-12-12----------------|

              Nothing matters                       'cause we're both in space
G|---------------------------|----------------------|------------------------|----------------------|
D|---------------14-12-------|-------------17-17-16-|------------------------|----------------------|
A|----------------------12---|-12-12-12-12----------|------------------------|----------14-12-14-12-|
E|-10--10--10-10-------------|----------------------|-12--12--12-12-12-12-12-|-12-12-12-------------|

              Pretty shit,                           we could never date
G|---------------------------|----------------------|-----------------------|-----------------------|
D|---------------16-14-------|-------------17-17-16-|------------14-16--14--|-16--14--16--14-12-----|
A|----------------------12---|-12-12-12-12----------|-----------------------|-----------------------|
E|-10--10--10-10-------------|----------------------|-12--12--12------------|-----------------------|

              She plays bass,                        she plays bass
G|---------------------------|----------------------|------------------------|----------------------|
D|---------------16-16-14----|--------------17-16---|------------------------|----------------------|
A|---------------------------|-12--12-12-12---------|------------------------|----------------------|
E|-10--10--10-10-------------|--------------------0-|-12--12--12-12-12-12-12-|-12-12-12-12-12-12-12-|


Instrumental:

G|-------------------------|----------9------11------|-------------------------|----------9h11p9---------|
D|-------------------------|-------------------------|-------12-------12-------|-12--------------12-9----|
A|-------12-------12-------|-12----------------------|-10-10----10-10----10-10-|----10-10-------------12-|
E|-10-10----10-10----10-10-|----10-10---(10)---------|-------------------------|-------------------------|

G|-------------------------|----------9------11------|-------------------------|----------9h11p9---------|
D|-------------------------|-------------------------|-------12-------12-------|-12--------------12-9----|
A|-------12-------12-------|-12----------------------|-10-10----10-10----10-10-|----10-10-------------12-|
E|-10-10----10-10----10-10-|----10-10---(10)---------|-------------------------|-------------------------|


Verse 2:

    Guess                             we're both stuck in the same boat
G|-------------------------|----------9------11------|-------------------------|----------9h11p9---------|
D|-------------------------|-------------------------|-------12-------12-------|-12--------------12-9----|
A|-------12-------12-------|-12----------------------|-10-10----10-10----10-10-|----10-10-------------12-|
E|-10-10----10-10----10-10-|----10-10---(10)---------|-------------------------|-------------------------|

  The world                        doesn't seem to get us though
G|-------------------------|----------9------11------|-------------------------|----------9h11p9---------|
D|-------------------------|-------------------------|-------12-------12-------|-12--------------12-9----|
A|-------12-------12-------|-12----------------------|-10-10----10-10----10-10-|----10-10-------------12-|
E|-10-10----10-10----10-10-|----10-10---(10)---------|-------------------------|-------------------------|

  You're just                                stuck on space
G|-------------------------|----------9------11------|-------------------------|----------9h11p9---------|
D|-------------------------|-------------------------|-------12-------12-------|-12--------------12-9----|
A|-------12-------12-------|-12----------------------|-10-10----10-10----10-10-|----10-10-------------12-|
E|-10-10----10-10----10-10-|----10-10---(10)---------|-------------------------|-------------------------|

 Just playing                                         your bass
G|-------------------------|----------9------11------|----------------|------------------|
D|-------------------------|-------------------------|----------------|------------------|
A|-------12-------12-------|-12----------------------|-10~------------|------------------|
E|-10-10----10-10----10-10-|----10-10---(10)---------|----------------|----------12-12-9-|


Chorus:

               She plays bass,                       she plays bass
G|---------------------------|----------------------|------------------------|----------------------|
D|---------------------------|-------14-------------|------------------------|-17-17-17-17-16-14----|
A|---------------12--x--12---|-12-12------12-14-----|------------------------|-------------------17-|
E|-10--10--10-10-------------|----------------------|-12--12--12-12-12-12-12-|----------------------|

              Nothing matters                       'cause we're both in space
G|---------------------------|----------------------|------------------------|----------------------|
D|---------------16-16-14----|--------------14--16--|---------------------17-|-x-17--16--14---------|
A|---------------------------|-12-12-12-12----------|------------------------|---------------14\----|
E|-10--10--10-10-------------|----------------------|-12--12--12-12-12-------|----------------------|

              Pretty shit,                           we could never date
G|---------------------------|----------------------|-----------------------|-----------------------|
D|-------------14--x--16-----|-------17-17-16-16----|-------------14--14h16-|-16-14-16--14-12-------|
A|---------------------------|-12-12----------------|-----------------------|-----------------14----|
E|-10--10--10----------------|----------------------|-15-15-15-15---15------|-----------------------|

              She plays bass,                        she plays bass
G|---------------------------|----------------------|------------------------|----------------------|
D|-------------14--x--16-----|--------------14-x----|------------------------|----------------------|
A|---------------------------|-12--12-12-12---------|------------------------|----------------------|
E|-10--10--10----------------|-------------------12-|-12--12--12-12-12-12-12-|-12-12-12-12-12-12-12-|



Instrumental 2:

G|---------------------|----------------|--------------|-----------|
D|---------------------|----------------|--------------|-----------|
A|---------------------|----12----12----|-------5------|---5---5---|
E|-10--10-10-10-10--10-|-10----10----10-|-3-3-3---3--3-|-3---3---3-|

G|---------------------|----------------|--------------|------------|
D|---------------------|----------------|--------------|------------|
A|-----------12-----12-|----12----12----|-------5----5-|---5---5----|
E|-10--10-10----10-----|-10----10----10-|-3-3-3---3----|-3---3---3/-|


Chorus:

  She plays bass, she plays bass.
G|-------|-------|-------|-------|
D|-------|-------|-------|-------|
A|-------|-------|-------|-------|
E|-10~---|-------|-------|-------|

  Nothing matters 'cause we're both in space
G|-------|-------|-------|-------|
D|-------|-------|-------|-------|
A|-------|-------|-------|-------|
E|-------|-------|-------|-------|

  How I wish                                     we could just date
G|--------------------------|-------------------|-------------------------|------------------------|
D|--------------------------|-------------------|-------12-------12-------|-12-------12------------|
A|-------12-------12--------|-----10-----10-----|-10-10----10-10----10-10-|----10-10----10-12------|
E|-10-10----10-10----10-10\-|-8-8----8-8----8-8-|-------------------------|------------------------|

 So you could teach me   how to be       more like you
G|--------------------------|--------------------|----------|-----------|
D|--------------------------|--------------------|----------|-----------|
A|-------12-------12--------|-----10-----10------|----------|-----------|
E|-10-10----10-10----10-10\-|-8-8----8-8----8-8\-|-3~-------|-----------|


Outro:

 Wish I was                  more like           you
G|--------------------------|-------------------|-------------------------|------------------------|
D|--------------------------|-------------------|-------12-------12-------|-12-------12------------|
A|-------12-------12--------|-----10-----10-----|-10-10----10-10----10-10-|----10-10----10-12------|
E|-10-10----10-10----10-10\-|-8-8----8-8----8-8-|-------------------------|------------------------|

 Wish I was                  more like            you
G|--------------------------|--------------------|-----------------|-----------------|
D|--------------------------|--------------------|-----------------|-----------------|
A|-------12-------12--------|-----10-----10------|-----5-----5-----|-5-----5---------|
E|-10-10----10-10----10-10\-|-8-8----8-8----8-8\-|-3-3---3-3---3-3-|---3-3---3-3/----|

 Wish I was                  more like           you
G|--------------------------|-------------------|-------------------------|------------------------|
D|--------------------------|-------------------|-------12-------12-------|-12-------12------------|
A|-------12-------12--------|-----10-----10-----|-10-10----10-10----10-10-|----10-10----10-12------|
E|-10-10----10-10----10-10\-|-8-8----8-8----8-8-|-------------------------|------------------------|


G|--------------------------|------------------|--------------------------|------------------|
D|--------------------------|------------------|--------------------------|------------------|
A|-------12-------12--------|-----5-----5------|-------12-------12--------|-----5-----5------|
E|-10-10----10-10----10-10\-|-3-3---3-3---3-3/-|-10-10----10-10----10-10\-|-3-3---3-3---3-3/-|

G|-----------------------------------------------------|
D|---------12/14-14/17-16----14h16---------------------|
A|-----12~----------------17-------17-14\12/14\12\9----|
E|-10~----------------------------------------------10-|


************************************

| x   Dead note
| (n) Ghost note
| h   Hammer-on
| p   Pull-off
| /   Slide up
| \   Slide down
| ~   Vibrato

************************************

↓ Add and view comments below ↓

What do you think about this song and these tabs?

Add your comments, questions, rant or a thumbs up below.

Almost there ...

Sign in to get your own page with links to favourite songs and more. You are just one click away...

Login with Facebook Login with Google