Log in

One click and you are in

Login with Facebook Login with Google

Why sign up and log in

Guitar Tabs Explorer
Beabadoobee guitar tabs for Dance with me

Guitar tabs with lyrics

  • Capo on 1st
Tuning: Standard (E A D G B E)

Key: A chord diagramC majorC

Difficulty: Novice
Verse 1:
A chord diagramC majorC           A chord diagramCmaj7Cmaj7  A chord diagramC majorC
If you wanna dance then
   A chord diagramCmaj7Cmaj7    A chord diagramFF A chord diagramFF A chord diagramFF A chord diagramFF
Dance with me

With capo:

e|------------------------------------|
B|---3--5-----3--5--------------------|
G|---------0--------------------------| x2
D|------------------------------------|
A|------------------------------------|
E|------------------------------------|

A chord diagramC majorC          A chord diagramCmaj7Cmaj7 A chord diagramC majorC
It's pretty fast but
         A chord diagramCmaj7Cmaj7          A chord diagramFF A chord diagramFF A chord diagramFF A chord diagramFF
This is what you do at parties, right?

With capo:

e|------------------------------------|
B|---3--5-----3--5--------------------|
G|---------0--------------------------| x2
D|------------------------------------|
A|------------------------------------|
E|------------------------------------|



Chorus:
      A chord diagramDmDm        A chord diagramDmDm        A chord diagramG MajorG
And I know it's hard to tell
A chord diagramG MajorG      A chord diagramFF       A chord diagramF minorFm
But I think I really like you


Interlude:
A chord diagramC majorC A chord diagramC7C7

With capo:

e|---11--12-11------------------------|
B|--------------12--------------------|
G|------------------13--11------------| x2
D|------------------------------------|
A|------------------------------------|
E|------------------------------------|


Verse 2:
A chord diagramC majorC            A chord diagramCmaj7Cmaj7
Just take it slow
 A chord diagramC majorC             A chord diagramCmaj7Cmaj7        A chord diagramFF
And move your feet to the beat

With capo:

e|------------------------------------|
B|---3--5-----3--5--------------------|
G|---------0--------------------------| x2
D|------------------------------------|
A|------------------------------------|
E|------------------------------------|
 A chord diagramC majorC           A chord diagramCmaj7Cmaj7  A chord diagramC majorC
'Cause if we dance then
      A chord diagramCmaj7Cmaj7          A chord diagramFF
You don't have to speak

With capo:

e|------------------------------------|
B|---3--5-----3--5--------------------|
G|---------0--------------------------| x2
D|------------------------------------|
A|------------------------------------|
E|------------------------------------|


Chorus:
      A chord diagramDmDm        A chord diagramDmDm       A chord diagramG MajorG
And I know it's hard to tell
      A chord diagramFF       A chord diagramF minorFm
But I think I really like you

(A chord diagramFF is played regular this time, and A chord diagramF minorFm is only strummed DOWN once)


Outro:
A chord diagramC majorC A chord diagramC7C7

e|---11--12-11------------------------|
B|--------------12--------------------|
G|------------------13--11------------|
D|------------------------------------|
A|------------------------------------|
E|------------------------------------|

With capo:

e|------------------------------------|
B|---3--5-----3--5--------------------|
G|---------0--------------------------|
D|------------------------------------|
A|------------------------------------|
E|------------------------------------|

x4

Other versions of Dance With Me

Dance with meChords

↓ Add and view comments below ↓

What do you think about this song and these tabs?

Add your comments, questions, rant or a thumbs up below.

Almost there ...

Sign in to get your own page with links to favourite songs and more. You are just one click away...

Login with Facebook Login with Google