Search tabs and chords

Search for song, artist or band

Log in

One click and you are in

Login with Facebook Login with Google

Why sign up and log in

Guitar Tabs Explorer
Battles guitar tabs for Atlas

Guitar tabs

---------------------------------------------------------------
			        Atlas - BATTLES
---------------------------------------------------------------
Tabbed by: mat

Tuning: standard

the guitarist taps these notes because he has to, but you don't!

Starting 2:16:

e|------------------------------|
B|------------------------------|
G|-h9h8h7--|  x7 then G|--b9----|
D|------------------------------|
A|------------------------------|
E|------------------------------|
e|--------11------------------11----------------|
B|----------------------------------------------|
G|-9-9-9-9---9-9-9-9-987---9-9---9-9-9987987987-| x2
D|----------------------------------------------|
A|----------------------------------------------|
E|----------------------------------------------|


e|--------11------------------11------14--14--14--|
B|------------------------------------------------|
G|-9-9-9-9---9-9-9-9-987---9-9---9-9-9---9---9----|
D|------------------------------------------------|
A|------------------------------------------------|
E|------------------------------------------------|

back to this for the last before the build-up begins:

e|--------11------------------11----------------|
B|----------------------------------------------|
G|-9-9-9-9---9-9-9-9-987---9-9---9-9-9987987987-|
D|----------------------------------------------|
A|----------------------------------------------|
E|----------------------------------------------|

now the build-up, beginning at 3:59 (I know these are the same notes, but it sounds correct.
Just play the 9 on A chord diagramG MajorG forever then.):

e|-----|
B|-----|
G|--9--|   x12
D|-----|
A|-----|
E|-----|

e|--------------------------------------------------------------------------|
B|-------------------------5-----5-----5-----5------b5-----5------b5-----5--|
G|--b9---9----9----9----9-----9-----9-----9-----b9------9-----b9------9-----|
D|--------------------------------------------------------------------------|
A|--------------------------------------------------------------------------|
E|--------------------------------------------------------------------------|


e|------|
B|----5-|
G|--9---|  x8
D|------|
A|------|
E|------|

e|------------------------------------|
B|---5---5----5---5----5---5----5---5-|
G|-b9--9---b9---9---99---9---99---9---|
D|------------------------------------|
A|------------------------------------|
E|------------------------------------|

e|-----|
B|--5--|
G|-9---| x10
D|-----|
A|-----|
E|-----|

and back into the first riff starting with e|--11--|.

Repeats from 6:03 until the break in the music at 6:28, when it finishes with...

People won't be people when they...

e|--11---rest---14---------------11-----------------|
B|--------------------------------------------------|
G|----------------9-9-9-987---9-9---9-9-9987987987--|
D|--------------------------------------------------|
A|--------------------------------------------------|
E|--------------------------------------------------|


*whew*


| h - hammer-on
| b - bend

Almost there ...

Sign in to get your own page with links to favourite songs and more. You are just one click away...

Login with Facebook Login with Google