Log in

One click and you are in

Login with Facebook Login with Google

Why sign up and log in

Guitar Tabs Explorer
Battle Beast bass tabs for Into the heart of danger

Into The Heart Of Danger bass tab by Battle Beast

Battle Beast bass tabs for Into the heart of danger

Bass tabs

Tuning: Standard (E A D G)


Intro:

G|-----------------|-----------------|-----------------|-----------------|
D|-----------------|-----------------|-----------------|-----------------|
A|-5-5-5-1-1-1-1-3-|-3-3-3-5-5-5-5-5-|-5-5-5-1-1-1-1-3-|-3-3-3-5-5-5-5-5-|
E|-----------------|-----------------|-----------------|-----------------|

G|-----------------|-----------------|-----------------|-----------------|
D|-----------------|-----------------|-----------------|---------3-------|
A|-5-5-5-1-1-1-1-3-|-3-3-3-5-5-5-5-5-|-1-1-1-1-3-3-3-5-|-5-5-5-5-----3---|
E|-----------------|-----------------|-----------------|-----------------|
Break:

G|---------|---------|---------|----------|
D|---------|---------|---------|----------|
A|-5-5-5-5-|-5-5-5-5-|-5-5-5-5-|-5-5-5-5\-|
E|---------|---------|---------|----------|


Verse 1:

G|---------|---------|---------|---------|
D|---------|---------|---------|---------|
A|-5-5-5-5-|-5-5-5-5-|-5-5-5-5-|-5-5-5-5-|
E|---------|---------|---------|---------|

G|---------|---------|---------|---------|
D|---------|---------|---------|---------|
A|-5-5-5-5-|-5-5-5-5-|-5-5-3---|---3-----|
E|---------|---------|---------|-----5-4-|

Prechorus:

G|---------------------------------|---------------------------------|
D|---------------------------------|---------------------------------|
A|---------------------------------|-----------------3---------------|
E|-3---3-3-3---3-3-5---5-5-5---5-5-|-6---6-6-6---6-6---------5---4---|

G|---------------------------------|---------------------------------|
D|---------------------------------|---------------------------------|
A|---------------------------------|-----------------3---------------|
E|-3---3-3-3---3-3-5---5-5-5---5-5-|-6---6-6-6-6-6-6-----------------|


Chorus:

G|-----------------|-----------------|-----------------|-----------------|
D|-----------------|-----------------|-----------------|-----------------|
A|-5-5-5-1-1-1-1-3-|-3-3-3-5-5-5-5-5-|-5-5-5-1-1-1-1-3-|-3-3-3-5-5-5-5-5-|
E|-----------------|-----------------|-----------------|-----------------|

G|-----------------|-----------------|-----------------|-----------------|
D|-----------------|-----------------|-----------------|---------3-------|
A|-5-5-5-1-1-1-1-3-|-3-3-3-5-5-5-5-5-|-1-1-1-1-3-3-3-5-|-5-5-5-5-----3---|
E|-----------------|-----------------|-----------------|-----------------|


Verse 2:

G|---------|---------|---------|---------|
D|---------|---------|---------|---------|
A|-5-5-5-5-|-5-5-5-5-|-5-5-5-5-|-5-5-5-5-|
E|---------|---------|---------|---------|

G|---------|---------|---------|---------|
D|---------|---------|---------|---------|
A|-5-5-5-5-|-5-5-5-5-|-5-5-3---|---3-----|
E|---------|---------|---------|-----5-4-|


Prechorus:

G|---------------------------------|---------------------------------|
D|---------------------------------|---------------------------------|
A|---------------------------------|-----------------3---------------|
E|-3---3-3-3---3-3-5---5-5-5---5-5-|-6---6-6-6---6-6---------5---4---|

G|---------------------------------|---------------------------------|
D|---------------------------------|---------------------------------|
A|---------------------------------|-----------------3---------------|
E|-3---3-3-3---3-3-5---5-5-5---5-5-|-6---6-6-6-6-6-6-----------------|


Chorus:

G|-----------------|-----------------|-----------------|-----------------|
D|-----------------|-----------------|-----------------|-----------------|
A|-5-5-5-1-1-1-1-3-|-3-3-3-5-5-5-5-5-|-5-5-5-1-1-1-1-3-|-3-3-3-5-5-5-5-5-|
E|-----------------|-----------------|-----------------|-----------------|

G|-----------------|-----------------|-----------------|-----------------|
D|-----------------|-----------------|-----------------|---------3-------|
A|-5-5-5-1-1-1-1-3-|-3-3-3-5-5-5-5-5-|-1-1-1-1-3-3-3-5-|-5-5-5-5-----3---|
E|-----------------|-----------------|-----------------|-----------------|

Interlude:

G|-----|-----|-----|-----|-----------------|-----|-----|-----|
D|-----|-----|-----|-----|-----------------|-----|-----|-----|
A|-5---|-----|-1---|-3---|-5-5-------------|-----|-1---|-3---|
E|-----|-----|-----|-----|-----------------|-----|-----|-----|

Guitar Solo:

G|-----------------|-----------------|-----------------|-----------------|
D|-----------------|-----------------|-----------------|-----------------|
A|-5-5-5-5-5-5-5-5-|-5-5-5-5-5-5-5-5-|-1-1-1-1-1-1-1-1-|-3-3-3-3-3-3-3-3-| 5x
E|-----------------|-----------------|-----------------|-----------------|

G|-----------------|-----------------|-----------------|-----------------|
D|-----------------|-----------------|-----------------|-----------------|
A|-5-5-5-5-5-5-5-5-|-5-5-5-5-5-5-5-5-|-1-1-1-1-1-1-1-1-|-3-3-3-3-3-3-3\--|
E|-----------------|-----------------|-----------------|-----------------|


Prechorus:

G|---------|---------------------------------|---------------------------------|
D|---------|---------------------------------|---------------------------------|
A|---3-----|---------------------------------|-----------------3---------------|
E|-----5-4-|-3---3-3-3---3-3-5---5-5-5---5-5-|-6---6-6-6---6-6---------5---4---|

G|---------------------------------|---------------------------------|
D|---------------------------------|---------------------------------|
A|---------------------------------|-----------------3---------------|
E|-3---3-3-3---3-3-5---5-5-5---5-5-|-6---6-6-6-6-6-6-----------------|


Chorus:

G|-----------------|-----------------|-----------------|-----------------|
D|-----------------|-----------------|-----------------|-----------------|
A|-5-5-5-1-1-1-1-3-|-3-3-3-5-5-5-5-5-|-5-5-5-1-1-1-1-3-|-3-3-3-5-5-5-5-5-|
E|-----------------|-----------------|-----------------|-----------------|

G|-----------------|-----------------|-----------------|-----------------|
D|-----------------|-----------------|-----------------|---------3-------|
A|-5-5-5-1-1-1-1-3-|-3-3-3-5-5-5-5-5-|-1-1-1-1-3-3-3-5-|-5-5-5-5-----3---|
E|-----------------|-----------------|-----------------|-----------------|

G|-----------------|-----------------|-----------------|-----------------|
D|-----------------|-----------------|-----------------|-----------------|
A|-5-5-5-1-1-1-1-3-|-3-3-3-5-5-5-5-5-|-5-5-5-1-1-1-1-3-|-3-3-3-5-5-5-5-5-|
E|-----------------|-----------------|-----------------|-----------------|

G|-----------------|-----------------|-----------------|-----------------|
D|-----------------|-----------------|-----------------|-----------------|
A|-5-5-5-1-1-1-1-3-|-3-3-3-5-5-5-5-5-|-1-1-1-1-3-3-3-5-|-5-5-5-5-5-5-5-5-|
E|-----------------|-----------------|-----------------|-----------------|

G|-----------------|-----------------|-----------------|-----------------|
D|-----------------|-----------------|-----------------|-----------------|
A|-1-1-1-1-3-3-3-5-|-5-5-5-5-5-5-5-5-|-1-1-1-1-3-3-3-5-|-5-5-5-5-5-5-5-5-|
E|-----------------|-----------------|-----------------|-----------------|

G|-----------------|-----------------|
D|-----------------|-----------------|
A|-1-----3---------|-----------------|
E|-----------------|-----------------|

G|---------|
D|---------|
A|-5-5-5-5-| x48
E|---------|


************************************

| /  Slide up
| \  Slide down

************************************

Almost there ...

Sign in to get your own page with links to favourite songs and more. You are just one click away...

Login with Facebook Login with Google