Log in

One click and you are in

Login with Facebook Login with Google

Why sign up and log in

Guitar Tabs Explorer
Lucio Battisti bass tabs for Nessun dolore

Bass tabs with lyrics

Nessun dolore - Battisti


Chorus Bass-tab

-------------0--1--3--4--5--------0---------------------|
----0--1--3-----------------1--3-----1------------------|
-3--------------------------------------0--1--2--3------|
--------------------------------------------------------|

----------0--2--3--4--5--3--2--1--0---------------------|
-1--3--4-----------------------------3--1--0------------|
--------------------------------------------------------|
--------------------------------------------------------|

C 	Eb 	F 	C

tu mi sembri un po' stupito
perché rimango qui indifferente
come se tu non avessi parlato
quasi come se tu non avessi detto niente

ti sei innamorato
cosa c'e' cosa c'e' che non va
io dovrei perciò soffrire da adesso
per ragioni ovvie di orgoglio e di sesso

e invece niente no non sento niente no - nessun dolore
non c'e' tensione non c'e' emozione - nessun dolore

quand'eri indeciso - combattuto
tra l'abbracciare me o la vita
ti ricordi i miei silenzi pesanti
che tu credevi gelosia per inesistenti amanti

allora gia' intuivo
che c'era qualcosa che mi sfuggiva
quella fragile eterea coerenza
di bambino senza troppa pazienza

non sento niente no adesso niente no - nessun dolore
non c'e' tensione non c'e' emozione - nessun dolore
non sento niente no adesso niente no - nessun dolore
non c'e' tensione non c'e' emozione - nessun dolore

il vetro non e' rotto dal sasso
ma dal braccio esperto di un ingenuo gradasso
l'applauso per sentirsi importante
senza domandarsi - per quale gente

tutte le occhiate maliziose che davi
eran semi sparsi al vento - qualcosa che perdevi
 C 	 Eb 	 F 	 Ab	 	C
e mi inaridivi - e mi inaridivi - e mi inaridivi

non sento niente no adesso niente no - nessun dolore
non c'e' tensione non c'e' emozione - nessun dolore
non sento niente no adesso niente no - nessun dolore

Almost there ...

Sign in to get your own page with links to favourite songs and more. You are just one click away...

Login with Facebook Login with Google