Log in

One click and you are in

Login with Facebook Login with Google

Why sign up and log in

Guitar Tabs Explorer
Courtney Barnett bass tabs for Are you looking after yourself

Are You Looking After Yourself bass tab by Courtney Barnett

Courtney Barnett bass tabs for Are you looking after yourself

Bass tabs

There are some variations in style throughout the song (mostly slides), but this should be a good start
☠☠times are based on studio recording


(bass comes in at 0:55)
G|--------------------|
D|--------------------| X8
A|----------8---------|
E|--3-3-5-7---6h8-6---|

G|---------------------|
D|---------------------| X8
A|---------------------|
E|-r-------------------|

(1:57)
G|--------------------|
D|--------------------| X8
A|----------8---------|
E|--3-3-5-7---6h8-6---|

(2:26)
G|---------------------|
D|---------------------| X4
A|---------------------|
E|-r-------------------|

(2:41)
G|--------------------|
D|--------------------| x4
A|----------8---------|
E|--3-3-5-7---6h8-6---|

(2:56)
G|---------------------|
D|---------------------| X4
A|---------------------|
E|-r-------------------|

(3:19)
G|--------------------|
D|--------------------| X16
A|----------8---------|
E|--3-3-5-7---6h8-6---|

Interlude/Outro:
(4:18)
G|--------------------|
D|--------------------| X13
A|----------8---------|
E|--3-3-5-7---6h8-6---|

G|---------------------|
D|---------------------|
A|----------8----------|
E|--3-3-5-7---6h8-6--3-|

(5:10)
G|---------------------|
D|---------------------|
A|---------------------|
E|-r-------------------|

(5:15)
G|---------------------|
D|---------------------| x39
A|----------8----------|
E|--3-3-5-7/---6h8-6\--|

G|---------------------|
D|---------------------|
A|----------8----------|
E|--3-3-5-7---6h8-6--3-|


☠☠☠☠☠☠☠☠☠☠☠☠☠☠☠☠☠☠☠☠☠☠☠☠☠☠☠☠☠☠☠☠☠☠☠☠

| h  Hammer-on
| r = rest
| / = slide up
| \ = slide down

☠☠☠☠☠☠☠☠☠☠☠☠☠☠☠☠☠☠☠☠☠☠☠☠☠☠☠☠☠☠☠☠☠☠☠☠

Almost there ...

Sign in to get your own page with links to favourite songs and more. You are just one click away...

Login with Facebook Login with Google