Log in

One click and you are in

Login with Facebook Login with Google

Why sign up and log in

Guitar Tabs Explorer
Barlow Girl tabs for On my own

Guitar tabs

Intro:
E------------------------------------------------------------------------------|
B------------------------------------------------------------------------------|
G------------------------------------------------------------------------------|
D-2--------7--------11--------9-9--9-9---2--------7--------11--------9-9--9-9--|
A-2--------7--------11--------9-9--9-9---2--------7--------11--------9-9--9-9--|
E-0--------5--------9---------7-7--7-7---0--------5--------9---------7-7--7-7--|
play intro once
Verse 1:
E-------------------------------------------------------|
B-------------------------------------------------------|
G-------------------------------------------------------|
D-2-2-2-2-2-2-7-7-7-7-7-7-11-11-11-11-11-11-9-9-9-9-9-9-|
A-2-2-2-2-2-2-7-7-7-7-7-7-11-11-11-11-11-11-9-9-9-9-9-9-|
E-0-0-0-0-0-0-5-5-5-5-5-5-9--9--9--9--9--9--7-7-7-7-7-7-|
pm______________________________________________________


Verse 1:
E--------------------------------------------------|
B--------------------------------------------------|
G--------------------------------------------------|
D-2-2-2-2-2-2--6---6-6-6-6-7-7-7-7-7-7-9-9-9-9-9-9-|
A-2-2-2-2-2-2--6---6-6-6-6-7-7-7-7-7-7-9-9-9-9-9-9-|
E-0-0-0-0-0-0--4---4-4-4-4-5-5-5-5-5-5-7-7-7-7-7-7-|
pm___________

play V1 2x


pre-chorus:
E-------------------------------------------------------------------------------|
B-------------------------------------------------------------------------------|
G-------------------------------------------------------------------------------|
D-11-11-11-11---6-6-6--7-7-7-7-7-7-9-9-9-9-9-9-11-11-11-11---6-6-6--7-7-7-7-7-7-|
A-11-11-11-11---6-6-6--7-7-7-7-7-7-9-9-9-9-9-9-11-11-11-11---6-6-6--7-7-7-7-7-7-|
E-9--9--9--9----4-4-4--5-5-5-5-5-5-7-7-7-7-7-7-9--9--9--9----4-4-4--5-5-5-5-5-5-|

E-------------------------|
B-------------------------|
G-------------------------|
A-9-9-9-9-9-9-9-9-9-9-9-9-|
D-9-9-9-9-9-9-9-9-9-9-9-9-|
E-7-7-7-7-7-7-7-7-7-7-7-7-|


Chorus:
E-------------------------------------------------------|
B-------------------------------------------------------|
G-------------------------------------------------------|
D-2-2-2-2-2-2-7-7-7-7-7-7-11-11-11-11-11-11-9-9-9-9-9-9-|
A-2-2-2-2-2-2-7-7-7-7-7-7-11-11-11-11-11-11-9-9-9-9-9-9-|
E-0-0-0-0-0-0-5-5-5-5-5-5-9--9--9--9--9--9--7-7-7-7-7-7-|


Verse2-same as Verse1

Pre-Chorus

Chorus

break

Chorus

Almost there ...

Sign in to get your own page with links to favourite songs and more. You are just one click away...

Login with Facebook Login with Google