Log in

One click and you are in

Login with Facebook Login with Google

Why sign up and log in

Guitar Tabs Explorer
Barclay James Harvest bass tabs for Hard hearted woman

Bass tabs

  • Tuning: Standard tuning
--------------------------------------------------------------------------
.                     Artist - Barclay James Harvest
                     ********************************
                      Song - Hard Hearted Woman
                      ***************************
                      Album - Gone To Earth (1977)
                     ******************************
                        Tabbed By - Ayreon77
                       **********************
--------------------------------------------------------------------------

Tuning = Standard
00:11

INTRO
******
G|------|--------|--------|-----------|---------|
D|------|--------|--------|-----------|---------|
A|-4~~~-|-2-4~~~-|-2-4~~~-|-2---0-----|-----2-4-|
E|------|--------|--------|---------1-|-1-3-----|


----------------------
00:32

VERSE 1
********
G|---------------|-----------|-------|---------|
D|----------s----|-----------|-------|---------|
A|---4---4-4\----|-----------|-2---4-|-0-0-2-2-|
E|-4---4-------1-|-0-1-1-3-5-|-------|---------|


G|-----------------|-----------|-------|--------------|
D|-------------s---|-----------|-------|--------------|
A|-4----4---4-4\---|-----------|-2---4-|----2---2-4-2-|
E|----4---4------1-|-0-1-1-3-5-|-------|-4----4-------|

----------------------
00:52

CHORUS
*******
G|-----------s-|-----------s-|-------------s-|-------------s-|-----------s-|-----------s-|
D|----------9\-|----------9\-|-----------11\-|-----------11\-|----------9\-|----------9\-|
A|-----6--9----|-----6--9----|-----7--11-----|-----7--11-----|-----6--9----|-----6--9----|
E|-7-----------|-7-----------|-9-------------|-9-------------|-7-----------|-7-----------|

01:06
G|-----s-----|---------------|
D|----5\7--7-|----4--2-4-2-4-|
A|-----------|---------------|
E|-5---------|-2-------------|

01:11
G|-------|-------|-------|-----|------|-------|-------|-----|-----|
D|-------|-------|-------|-----|------|-------|-------|-----|-----|
A|---2-4-|-------|-2-3-4-|-----|-2--4-|-------|-2-3-4-|-----|-2-4-|
E|-4-----|-0-2-2-|-------|-0-2-|------|-0-2-2-|-------|-0-2-|-----|


----------------------
01:23

VERSE 2
********
G|---------------|-----------|-------|---------|
D|----------s----|-----------|-------|---------|
A|---4---4-4\----|-----------|-2---4-|-0-0-2-2-|
E|-4---4-------1-|-0-1-1-3-5-|-------|---------|


G|-----------------|-----------|-------|----------------|
D|-------------s---|-----------|-------|----------------|
A|-4----4---4-4\---|-----------|-2---4-|----2---2-4-2---|
E|----4---4------1-|-0-1-1-3-5-|-------|-4----4-------4-|


----------------------
01:42

CHORUS
*******
G|-----------s-|-----------s-|-------------s-|-------------s-|-----------s-|-----------s-|
D|----------9\-|----------9\-|-----------11\-|-----------11\-|----------9\-|----------9\-|
A|-----6--9----|-----6--9----|-----7--11-----|-----7--11-----|-----6--9----|-----6--9----|
E|-7-----------|-7-----------|-9-------------|-9-------------|-7-----------|-7-----------|

01:06
G|-----s-----|---|
D|----5\7--7-|---|
A|-----------|---|
E|-5---------|-2-|


NO BASS


02:21
G|---------------|
D|---------------|
A|-4---2---0-----|
E|-------------2-|


----------------------
02:31
GUITAR SOLO
************
G|---------------|-----------|-------|---------|
D|-------------s-|-----------|-------|---------|
A|-4----4---4-4\-|-----------|-2---4-|-0-0-2-2-|
E|----4---4------|-0-1-1-3-5-|-------|---------|


G|-----------------|-----------|-------|----------------|
D|-------------s---|-----------|-------|----------------|
A|-4----4---4-4\---|-----------|-2---4-|----2---2-4-2---|
E|----4---4------1-|-0-1-1-3-5-|-------|-4----4-------4-|


----------------------
02:51

CHORUS
*******
G|-----------s-|-----------s-|-------------s-|-------------s-|-----------s-|-----------s-|
D|----------9\-|----------9\-|-----------11\-|-----------11\-|----------9\-|----------9\-|
A|-----6--9----|-----6--9----|-----7--11-----|-----7--11-----|-----6--9----|-----6--9----|
E|-7-----------|-7-----------|-9-------------|-9-------------|-7-----------|-7-----------|

01:06
G|-----s-----|---|
D|----5\7--7-|---|
A|-----------|---|
E|-5---------|-2-|


----------------------

OUTRO
******
G|-----------|-4-5-6-|
D|-----------|-------|
A|-4-----2-4-|-------|Just repeat
E|-----4-----|-------| this to the end and fade out.........

Almost there ...

Sign in to get your own page with links to favourite songs and more. You are just one click away...

Login with Facebook Login with Google