Log in

One click and you are in

Login with Facebook Login with Google

Why sign up and log in

Guitar Tabs Explorer
Band Maid bass tabs for No god

Bass tabs

  • Difficulty: Intermediate
Tuning: Standard (E A D G)

Obviously Misa plays this on a 5-string, however she doesn't use
the low B at all in this solo which is a bonus if you play a 4.

🎸 Intro:
          s p p p s p s p s p s  s ps p s  sp sp sp s s  s pp s p p p
G|---------------------------------------------------------------------------5-5-5---|
D|-------------------7-7-7---7---5---5-------x--x------x--x--x----------77-5h7-------|
A|-------------------------------------3h5-x--x---5h7-x--x--x--5---------------------|
E|-0----/16--------5-------5---x---x------------------------------0h5-5--------------|

                s  sp p s  sp p s  s s  p p s  p p p s
G|----------------------------------7-7------5-5---------------------------------------------|
D|-----------------------------------------------5h7-5-----5-5-----5-5-5-5h7----12-10-10-12--|
A|-/12(X6)-\-/15(X6)-\-/17(X4)-0h5-5----0h3-3----------5h7-----5h7---------------------------|
E|---------------------------------------------------------------------------/14-------------|
        ^       :
She switches to a pick super quick here
but if holding a pick and slapping doesn't
work for you you can use double thumbing
instead which I think sounds even better.


************************************

| x  Dead note
| h  Hammer-on
| /  Slide up
| \  Slide down
| s  Slap
| P  Pop

************************************

Almost there ...

Sign in to get your own page with links to favourite songs and more. You are just one click away...

Login with Facebook Login with Google