Log in

One click and you are in

Login with Facebook Login with Google

Why sign up and log in

Guitar Tabs Explorer
Band Maid guitar tabs for Anemone

Guitar tabs

Tuning: Standard (E A D G B E)


INTRO RIFF

E|---------7-----7-----11---11/12---11---------------|
B|---7-----------------------------------12---\7-----|
G|-9-----9-----9-----9-------------------------------|
D|---------------------------------------------------|
A|---------------------------------------------------|
e|---------------------------------------------------| Repeat 2x

PREVERSE
                                                                        Check me out nee
   A chord diagramC#C#            Asus2/F#     A chord diagramAsus2Asus2        A chord diagramBsusBsus         A chord diagramC#C#           Asus2/F#
E|-0-----------|-0----------|-0----------|-0----------|-0----------|-0----------|
B|-0-----------|-0----------|-0----------|-0----------|-0----------|-0----------|
G|-6-----------|-2----------|-2----------|-4----------|-6----------|-2----------|
D|-6-----------|-2----------|-2----------|-4----------|-6----------|-2----------|
A|-4-----------|-0----------|-0----------|-2----------|-4----------|-0----------|
e|-x-----------|-2----------|------------|-x----------|-x----------|-2----------|


Verse:
   sotto      I hope in you…  ni kakureta… you hold me down.    Akenai
   yoru nante ugh get a grip  Arienai…     Ukabu itami mamotta
   A chord diagramC#C#            Asus2/F#     A chord diagramAsus2Asus2        A chord diagramBsusBsus
E|-0-----------|-0----------|-0----------|-0----------|
B|-0-----------|-0----------|-0----------|-0----------|
G|-6-----------|-2----------|-2----------|-4----------|
D|-6-----------|-2----------|-2----------|-4----------|
A|-4-----------|-0----------|-0----------|-2----------|
e|-x-----------|-2----------|------------|-x----------| Repeat x1


Bridge:
   Don'nani...   Don'nani...  Not give up...mienai      Zutto soba ni irukara
   A chord diagramF#F#            A chord diagramG#G#           A chord diagramAsus2Asus2        A chord diagramBsusBsus         Bmaj
E|-0-----------|-0----------|-0----------|-0----------|------------|
B|-0-----------|-0----------|-0----------|-0----------|-4----------|
G|-2-----------|-4----------|-2----------|-4----------|-4----------|
D|-4-----------|-6----------|-2----------|-4----------|-4----------|
A|-4-----------|-6----------|-0----------|-2----------|-2----------|
e|-2-----------|-4----------|------------|-x----------|-x----------|

Pre-Chorus:
    Aimaina...    Katachi...    Kotoba...    Ima wa tada   dakishemete
   A chord diagramC#C#         Asus2/F#        A chord diagramAsus2Asus2        A chord diagramBsusBsus        Bmaj
E|-0------0----|-0------0---|-0------0---|-0----------|------------|
B|-0----4------|-0----4-----|-0----4-----|-0----------|-4----------|
G|-6--------4--|-2--------4-|-2--------4-|-4----------|-4----------|
D|-6-----------|-2----------|-2----------|-4----------|-4----------|
A|-4-----------|-0----------|-0----------|-2----------|-2----------|
e|-X-----------|-2----------|------------|-x----------|-x----------|
 
    Mou ichido... Nande...    dounimo...  Omoi wa tsumotte ku
   A chord diagramC#C#            Asus2/F#     A chord diagramAsus2Asus2        A chord diagramBsusBsus           Bmaj
E|-0------0----|-0------0---|-0------0---|-0----------0-|------------|
B|-0----4------|-0----4-----|-0----4-----|-0----------0-|-4----------|
G|-6--------4--|-2--------4-|-2--------4-|-4----------4-|-4----------|
D|-6-----------|-2----------|-2----------|-4----------4-|-4----------|
A|-4-----------|-0----------|-0----------|-2----------2-|-2----------|
e|-X-----------|-2----------|------------|-x----------x-|-x----------|


Verse:
                                                 Check me out mou
   A chord diagramC#C#            Asus2/F#     A chord diagramAsus2Asus2        A chord diagramBsusBsus
E|-0-----------|-0----------|-0----------|-0----------|
B|-0-----------|-0----------|-0----------|-0----------|
G|-6-----------|-2----------|-2----------|-4----------|
D|-6-----------|-2----------|-2----------|-4----------|
A|-4-----------|-0----------|-0----------|-2----------|
e|-x-----------|-2----------|------------|-x----------|

   kitto...  Not without you… yokugao ni Kikenai true feeling.  Nemurenai
   byakuya ni  I hear your... Yasashii...  Isso subete o kowashite
   A chord diagramC#C#            Asus2/F#     A chord diagramAsus2Asus2        A chord diagramBsusBsus
E|-0-----------|-0----------|-0----------|-0----------|
B|-0-----------|-0----------|-0----------|-0----------|
G|-6-----------|-2----------|-2----------|-4----------|
D|-6-----------|-2----------|-2----------|-4----------|
A|-4-----------|-0----------|-0----------|-2----------|
e|-x-----------|-2----------|------------|-x----------| Repeat


Bridge:
   Don'nani     (don'nani)Don'nani             itoshikute mo
   Slowly up    (yukkuri)Ma-       -hou-     -wa tokete yuku
  Asus2/F# A chord diagramBsusBsus    Asus2/F#         A chord diagramBsusBsus     A chord diagramC#C#
E|-0-------0-------0---|-0----------0--------0-|
B|-0-------0-------0---|-0----------0--------0-|
G|-2-------4-------2---|-2----------4--------6-|
D|-2-------4-------2---|-2----------4--------6-|
A|-0-------2-------0---|-0----------2--------4-|
e|-2-------x-------2---|-2----------x--------x-| Repeat


Bridge:
   I know that… Tsunaide…     Konomama… tometeyo        Zutto soba ni itaikara
   A chord diagramF#F#            A chord diagramG#G#           A chord diagramAsus2Asus2        A chord diagramBsusBsus         Bmaj
E|-0-----------|-0----------|-0----------|-0----------|------------|
B|-0-----------|-0----------|-0----------|-0----------|-4----------|
G|-2-----------|-4----------|-2----------|-4----------|-4----------|
D|-4-----------|-6----------|-2----------|-4----------|-4----------|
A|-4-----------|-6----------|-0----------|-2----------|-2----------|
e|-2-----------|-4----------|------------|-x----------|-x----------|

 

Chorus:
    Iiwake…       Aenai...     Egao no…     Imadake wa  yurushite yo
    Modossenai…   Nande...    Kangae... shite Yorugaakete ku
   A chord diagramAsus2Asus2         A chord diagramBsusBsus         A chord diagramC#C#           Asus2/F#
E|-0-----------|-0----------|-0----------|-0----------|
B|-0-----------|-0----------|-0----------|-0----------|
G|-2-----------|-4----------|-6----------|-2----------|
D|-2-----------|-4----------|-6----------|-2----------|
A|-0-----------|-2----------|-4----------|-0----------|
e|-------------|-x----------|-x----------|-2----------| Repeat

   A chord diagramAsus2Asus2        A chord diagramBsusBsus          Asus2/F#     Asus2/F#
E|-0-----------|-0----------|-0----------|-0----------| (No lyrics here)
B|-0-----------|-0----------|-0----------|-0----------|
G|-2-----------|-4----------|-2----------|-2----------|
D|-2-----------|-4----------|-2----------|-2----------|
A|-0-----------|-2----------|-0----------|-0----------|
e|-------------|-x----------|-2----------|-2----------|

                                           Zu     tto    soba ni irukara     Au tabi ni…
   Asus2/F#      A chord diagramBsusBsus         Asus2/F#     A chord diagramF#F#     A chord diagramG#G#     A chord diagramA majorA      A chord diagramBsusBsus   A chord diagramC# minorC#m
E|-0-----------|-0----------|-0----------|-----------------------------4-|
B|-0-----------|-0----------|-0----------|-------------------2---------5-|
G|-2-----------|-4----------|-2----------|-----2------4----2--------4--6-|
D|-2-----------|-4----------|-2----------|---4------6-------------4----6-|
A|-0-----------|-2----------|-0----------|---------------0------2------4-|
e|-2-----------|-x----------|-2----------|-2------4--------------------x-|

    Shiawase…     Tomedonaku…  Yuiitsu to    Omoishiru
   A chord diagramC#C#            Asus2/F#     A chord diagramBsusBsus         Bmaj
E|-0------0----|-0--------0-|-0----------|------------|
B|-0----4------|-0--------0-|-0----------|-4----------|
G|-6--------4--|-2----------|-4----------|-4----------|
D|-6-----------|-2----------|-4----------|-4----------|
A|-4-----------|-0----------|-2----------|-2----------|
e|-x-----------|-2----------|-x----------|-x----------|

    Mou ichido…       Kitto watashi…   Anata ni deau   Sono hi o yumemiru yo
   A chord diagramC# minorC#m               A chord diagramBsusBsus              A6sus2            A chord diagramBsusBsus            Bmaj
E|-4---4-------4---|-0--(0)-----(0)--|-0--(0)-----(0)--|-0--(0)-----(0)----|
B|-5-------5-------|-0---5---4---5---|-0---5---4---5---|-0---5---4---5---4-|
G|-6-6---6---6---6-|-4---------------|-4---------------|-4---------------4-|
D|-6---------------|-4-4---4---4---4-|-4-4---4---4---4-|-4-4---4---4---4-4-|
A|-4---------------|-2---------------|-0---------------|-2---------------2-|
e|-x---------------|-x---------------|-x---------------|-x---------------x-| Let Ring

(Zutto)
   yoru no...  tojikomete Itsu made mo..  Kienai you ni
   Asus2/F#      A chord diagramBsusBsus         A chord diagramC#C#             Asus2/F#
E|-0-----------|-0----------|-0------------|-0----x------|
B|-0-----------|-0----------|-0------------|-0----x------|
G|-2-----------|-4----------|-6------------|-2----x------|
D|-2-----------|-4----------|-6------------|-2----x------|
A|-0-----------|-2----------|-4------------|-0----x------|
e|-2-----------|-x----------|-x------------|-2----x------| Mute

   Tatoe                              sonohi ga
   Asus2/F#                             A chord diagramBsusBsus
E|-0-0-x--0-0-x--0-0-x--0-0-x--0-0-x--|-0-0-x--0-0-x--0-0-x--0-0-x--0-0-x--|
B|-0-0-x--0-0-x--0-0-x--0-0-x--0-0-x--|-0-0-x--0-0-x--0-0-x--0-0-x--0-0-x--|
G|-2-2-x--2-2-x--2-2-x--2-2-x--2-2-x--|-4-4-x--4-4-x--4-4-x--4-4-x--4-4-x--|
D|-2-2-x--2-2-x--2-2-x--2-2-x--2-2-x--|-4-4-x--4-4-x--4-4-x--4-4-x--4-4-x--|
A|-0-0-x--0-0-x--0-0-x--0-0-x--0-0-x--|-2-2-x--2-2-x--2-2-x--2-2-x--2-2-x--|
e|-2-2-x--2-2-x--2-2-x--2-2-x--2-2-x--|-x-x-x--x-x-x--x-x-x--x-x-x--x-x-x--|

 Konakute mo     Aishiteru
   A chord diagramC#C#
E|-0-----------|-x----------|
B|-0-----------|-x----------|
G|-6-----------|-x----------|
D|-6-----------|-x----------|
A|-4-----------|-x----------|
e|-x-----------|-x----------| Mute


Outro:
    Aimaina…      Katachi…     Kotoba…       Ima wa tada dakishimete
   Asus2/F#      A chord diagramBsusBsus         A chord diagramC#C#           Asus2/F#
E|-0-----------|-0----------|-0----------|-0--------------|
B|-0-----------|-0----------|-0----------|-0--------------|
G|-2-----------|-4----------|-6----------|-2--------------|
D|-2-----------|-4----------|-6----------|-2--------------|
A|-0-----------|-2----------|-4----------|-0--------------|
e|-2-----------|-x----------|-x----------|-2--------------|

    Mouichido…    Nande…      dounimo…     Omoi wa tsumotte ku.
   A chord diagramAsus2Asus2         A chord diagramBsusBsus         A chord diagramC#C#           Asus2/F#
E|-0-----------|-0----------|-0----------|-0------------x-||
B|-0-----------|-0----------|-0----------|-0------------x-||
G|-2-----------|-4----------|-6----------|-2------------x-||
D|-2-----------|-4----------|-6----------|-2------------x-||
A|-0-----------|-2----------|-4----------|-0------------x-||
e|-------------|-x----------|-x----------|-2------------x-|| Mute

↓ Add and view comments below ↓

What do you think about this song and these tabs?

Add your comments, questions, rant or a thumbs up below.

Almost there ...

Sign in to get your own page with links to favourite songs and more. You are just one click away...

Login with Facebook Login with Google